Song name
# A B C D E F G H I J K L M N O P Q R S T U V W X Y Z

Lewis Watson - Bones tab

---------------------------------------------------------------------------
                             Bones - Lewis Watson
---------------------------------------------------------------------------
if i  type the chords you could probably work out the strumming pattern
(verse 1)
e|-3-0-0-x2 till singing comes in-----------------------------3-0-0-0-0--|
B|-3-3-1----------------------------play those chords until---3-3-1-1-1--|
G|-4-0-0---------------------------"and don't make a sound"---4-0-0-0-0--|
D|-5-4-2------------------------------------------------------5-4-2-0-2--|
A|-5-5-3------------------------------------------------------5-5-3-2-3--|
E|-3-5-3------------------------------------------------------3-5-3-0-0--|
(verse 2)
e|-3-0-0-x2 till singing comes in-----------------------------3-0-0-0-0--|
B|-3-3-1----------------------------play those chords until---3-3-1-1-1--|
G|-4-0-0---------------------------"it will be a different----4-0-0-0-0--|
D|-5-4-2----------------------------line during this verse"---5-4-2-0-2--|
A|-5-5-3------------------------------------------------------5-5-3-2-3--|
E|-3-5-3------------------------------------------------------3-5-3-0-0--|

(i think this is the chorus) during the studio version you hear this riff

e|----------------------------------------3-3-2-2-2h3p2-2-7-3-3----------|
B|-3-0----------"so i spend the night"----3-3---3-------3-8-3-3----------|
G|-----2-0-2-0----------------------------0-0---0-------2-7-5-4----------|
D|----------------------------------------0-0---0-------4-9-5-5----------|
A|----------------------------------------0-0---0-------2-7-3-3----------|
E|--------------------------------------3-3-3---3-------2-7-X-X----------|

you should get all of the chord changes from this video of him playing 
bones inhis kitchen
http://www.youtube.com/watch?v=HOUT-52HrUI
Tap to rate this tab
# A B C D E F G H I J K L M N O P Q R S T U V W X Y Z