Song name
# A B C D E F G H I J K L M N O P Q R S T U V W X Y Z

Lewis Watson - Nothing tab

---------------------------------------------------------------------------
                             Nothing - Lewis watson
---------------------------------------------------------------------------
this songs pretty straight forward (capo 3)
(you have a choice on what to play you can strum or finger pick)

(verse)           or              (verse)
e|----------------------------|-----------0---0---0---------------------0|
B|-----------0-----0-----0----|-----------0---0---0-----every so often--0|
G|-------------0-----0-----0--|-----------0---0---0-----it ends on------0|
D|----------------------------|-----------0---0---2---------------------0|
A|-2h3-2-0--------------------|-2h3-2-0---2---3---2---------------------3|
E|---------3-----5-----0------|---------3-3-5-5-0-0---------------------5|
they both sound fine :)
(chorus)
e|-0-0-0-0---------------------------------------------------------------|
B|-0-0-0-0---------------------------------------------------------------|
G|-0-0-0-0---------------------------------------------------------------|
D|-2-0-0-2---------------------------------------------------------------|
A|-3-2-3-2-2h3-2-0-------------------------------------------------------|
E|-0-3-5-0---------------------------------------------------------------|

i tabbed it from this video of him playing in hyde park australia
http://www.youtube.com/watch?v=nGlMm6fqa2k
its probably not 100% percent correct but it sounds fine soo....
Any problems email me: J.colgan@musician.org
Tap to rate this tab
# A B C D E F G H I J K L M N O P Q R S T U V W X Y Z