Song name
# A B C D E F G H I J K L M N O P Q R S T U V W X Y Z

Liam Frost And The Slowdown Family - Try Try Try tab

-------------------------------------------------------------------------------
			     Try Try Try - Liam Frost
-------------------------------------------------------------------------------
Ok i know this isnt quite right but hopefully its a start and you can work on it for me, 
pretty sure the chords are right though.

Tabbed by: Jim Jimini
Email: Jim_Jimini@hotmail.co.uk

Tuning: Standard

Capo 7

    C                          G
e|---------------------------------------------------------------------------|
B|----1---------------1-----------0-------------0----------------------------|
G|--------------0-----------0-------------0-----------0----------------------|
D|---------2-------------2-----------0-------------0-------------------------|
A|--3--------------3-----------2-------------2-------------------------------|
E|---------------------------------------------------------------------------|

    Am                   Am
e|-------------------------------------0-------------------------------------|
B|-----1-----------1-----0h1--------------1----------------------------------|
G|-----------2----------------2-----2--------2-------------------------------|
D|--------2-----------2----------2-------------------------------------------|
A|--0-----------0------------------------------------------------------------|
E|---------------------------------------------------------------------------|

    F                       G
e|---------------------------------------------------------------------------|
B|-----1-----------1-----------0-----------0---------------------------------|
G|-----------2-----------2-----------0-----------0---------------------------|
D|--------3-----------3-----------0-----------0------------------------------|
A|--3-----------3-----------2-----------2------------------------------------|
E|---------------------------------------------------------------------------|

    C                       G
e|--------------------------------------------------------------------------|
B|-----1-----------1-----------0-----------0--------------------------------|
G|-----------0-----------0-----------0-----------0--------------------------|
D|--------2-----------2-----------0-----------0-----------------------------|
A|--3-----------3-----------2-----------2-----------------------------------|
E|--------------------------------------------------------------------------|

| /  slide up
| \  slide down
| h  hammer-on
| p  pull-off
| ~  vibrato
| +  harmonic
| x  Mute note
===============================================================================
Tap to rate this tab
 
# A B C D E F G H I J K L M N O P Q R S T U V W X Y Z