Song name
# A B C D E F G H I J K L M N O P Q R S T U V W X Y Z

Liars - Other Side Of Mt Heart Attack tab

Capo the second fret.

e|---5-----5-----0-----5-----0----------5-----0---------5-----0-----5-----0-|
b|--------------------------------------------------------------------------|
g|-2-----2-----------2--------------------------------------------2---------|
d|-------------2-----0-----2-----0---0------2-----0---0-----2-----0-----2---|
a|------------------------------------0----------------0--------------------|
E|--------------------------------------------------------------------------|

Ah...                       |Repeat For Rest of Song|

e|-----5------0-------------|---5-----0-------------|
b|------------------3-----3-|---------------3-----3-|
g|---2----------------------|-2---------------------|
d|-0--------2-----0-----0---|-------2-----0-----0---|
a|--------------------------|-----------------------|
E|--------------------------|-----------------------| 

I won't run far. 
I won't run far. 
I won't run far. 

I can always be found. 
I can always be found. 

Ah... 

If you need me, 
If you need me, 
If you need me, 

I can always be found. 
I can always be found. 

Ah... 

If you want me to stay, 
If you want me to stay, 
If you want me to stay, 

I will stay by your side. 
I will stay by your side. 
I will stay by your side. 

I won't run far. 
I won't run far. 
I won't run far. 

I can always be found. 
I will stay by your side, 
And I want you to find me, 
so I'll stay by your side. 

Ah... 

If you need me, 
If you need me, 
If you need me, 

I can always be found. 
I can always be found. 
I can always be found. 

Ah... 

I won't run far. 
I won't run far. 
I won't run far. 

I can always be found. 
I can always be found. 
I can always be found.

Tabbed by Patrick Lewis
konachrome@hotmail.com
Tap to rate this tab
# A B C D E F G H I J K L M N O P Q R S T U V W X Y Z