Song name
# A B C D E F G H I J K L M N O P Q R S T U V W X Y Z

Liberty Mario - Scissors tab

 Compuesta por Mario.

 Cover de tenergy13:

 http://www.youtube.com/watch?v=DkYGu3WrDfA

 Se agradece que la veáis y os suscribáis ^^





4/4
  Gtr I
  E E E  E  E E  E  E E E S S S S S S
|----------------------------------------|
|---8----8\-7----7\-5---5---5---5---5----|
|----------------------------------------|
|----------------------------------------|
|-7---7\----5-5\----3-3---3---3---3------|
|----------------------------------------|


  E E E E  E  E  E  E E E E E E E     8x
|-------------------------------------||
|---8---8--7--3--3\-5---5---5---5----o||
|-------------------------------------||
|-------------------------------------||
|-7---7----5--2--2\-3-3---3---3------o||
|-------------------------------------||


  E  E  E  E  E  E  E E E E     4x
|-------------------------------||
|-8--8--7--7--3--3--3-3-3-3----o||
|-9--9--7--7--3--3--3-3-3-3-----||
|-9--9--7--7--3--3--3-3-3-3-----||
|-7--7--5--5--5--5--5-5-5-5----o||
|-------------------------------||


  E E E  E  E E E E E E E E E E E
|------------------------------------|
|---3----3\-5---5---7---7---8---8----|
|------------------------------------|
|------------------------------------|
|-2---2\----3-3---5---5---7---7------|
|------------------------------------|


  E E E  E  E E E E E E  E  E    10x
|---------------------------------||
|---3----3\-5---5---7----7\-5----o||
|---------------------------------||
|---------------------------------||
|-2---2\----3-3---5---5\----3----o||
|---------------------------------||


  E    E    E     E     6x
|-----------------------||
|-3----5----7-----8----o||
|-4----5----7-----9-----||
|-4----5----7-----9-----||
|-2----3----5-----7----o||
|-----------------------||


  Q S S S S S S  S H    Q  Q  Q   E Q  E  H
|-----------------------------------------------||
|----------------------------------------------o||
|-----------------------7--9--------------------||
|---9-9-9-9-9-7---------------7-----------------||
|-7-------------10-9-------------10-9--5\-7----o||
|-----------------------------------------------||


Duration Legend
---------------
W - whole; H - half; Q - quarter; E - 8th; S - 16th; T - 32nd; X - 64th; a - acciaccatura
+ - note tied to previous; . - note dotted; .. - note double dotted
Uncapitalized letters represent notes that are staccato (1/2 duration)
Irregular groupings are notated above the duration line
Duration letters will always appear directly above the note/fret number it represents the
duration for.  Duration letters with no fret number below them represent rests.  Multi-
bar rests are notated in the form Wxn, where n is the number of bars to rest for.  Low
melody durations appear below the staff

Tablature Legend
----------------
 h   - hammer-on
 p   - pull-off
 b   - bend
 pb  - pre-bend
 r   - bend release (if no number after the r, then release immediately)
 /\  - slide into or out of (from/to "nowhere")
 s   - legato slide
 S   - shift slide
 - natural harmonic
[n]  - artificial harmonic
n(n) - tapped harmonic
 ~   - vibrato
 tr  - trill
 T   - tap
 TP  - trem. picking
 PM  - palm muting
\n/  - tremolo bar dip; n = amount to dip
 \n  - tremolo bar down
 n/  - tremolo bar up
/n\  - tremolo bar inverted dip
 =   - hold bend; also acts as connecting device for hammers/pulls
 <> - volume swell (louder/softer)
 x   - on rhythm slash represents muted slash
 o   - on rhythm slash represents single note slash

Misc Legend
-----------
 |  - bar
||  - double bar
||o - repeat start
o|| - repeat end
*|  - double bar (ending)
 :  - bar (freetime)
 $  - Segno
 &  - Coda
Tempo markers -  = BPM(8/16=s8/s16), where s8 = swing 8ths, s16 = swing 16ths
Tap to rate this tab
# A B C D E F G H I J K L M N O P Q R S T U V W X Y Z