Lifehouse - Everything tab

"Everything" by Lifehouse

Tabbed by Brandon Cabrera

Video of Brandon singing/playing it here:


Key of C#

 x = mute
 ^ = hammer on/off
 * = thumb slap

Tuning: C# G# C# G# C# C#

Intro/Verse:(finger picking)
---3------3---2----------3---------|
--------0---0---0----0-----0---0---|
------3---------3--3---3-----3-----|
-----------------------------------|
--------------0-1------------------|
---0-------------------------------|

Interlude(pre-chorus):
---3----3-----------3--------3----------3-----|
------------------0----0---------------0-0----|
------0---------0--------0-----0------0-------|
---3------2^0-0--------------3----2-3---------|
---3------0---1--------------3----3-1---------|
----------------------------------------------|

---3----3-----------3--------3------3--|
------------------0----0---------------|
------0---------0--------0-----0----3--|
---3------2^0-0--------------3----2----|
---3------0---1--------------3----3-1--|
---------------------------------------|

Turnaround(chorus):("all I want")(pick strumming)
-----3---3---3---0----|
-----3---3---0---0----|
-----0---0---3---3----|
-*---0---3---0---2----|
-*---0---1---x---3----|
-----0-------3--------|

("and how can I..")
---3---3-3---3-3---3-0---|
---0---0-0---0-0---0-0---|
---0---0-0---0-0---0-3---|
---3---2-3---2-0---2-0---|
---0---0-0---0-x---x-1---|
---3---3-3---3-3---3-3---|

Outro:(finger picking)
---3------3---2----------2-----0----|
--------0---0---0----0-----0---0----|
------3---------3--3---3-----0-0----|
-------------------------------x----|
--------------0-1--------------5----|
---0--------------------------------|
Tap to rate this tab
 
# A B C D E F G H I J K L M N O P Q R S T U V W X Y Z