Song name
# A B C D E F G H I J K L M N O P Q R S T U V W X Y Z

Lifehouse - Everything tab

-------------------------------------------------------------------------------
                             EVERYTHING - Lifehouse
-------------------------------------------------------------------------------
Tabbed by: Sammichblooper (hai, I'm Georgia)
E-mail: songsingergeorgia@gmail.com

Tuning: Standard


Intro: (also used for verses) (Using chords C#m, Abm, A2)
e|-------------------------------------------------------0-------------------|
B|----5--------------5---------4---------0-------------------0---------------|
G|---------6-------------6----------4--------2-------------------2-----------|
D|--------------6--------------------------------2--------------------2------|
A|----4-------------------------6---------0----------0-----------------------|
E|---------------------------------------------------------------------------|

Repeat the above thing throughout the verses. I think it sounds fine if you do.

Chorus: (x2) or you could use the chords (E, B, A2)
e|---------------------------------------------------------------------------|
B|-----------------0-------------------------------0-------------------------|
G|-------------1-------1-------4-----------2-----------2-------2-------------|
D|---------2---------------------------2-------2-----------2-----------------|
A|-------------------------2-------0-----------------------------------------|
E|-----0---------------------------------------------------------------------|

e|---------------------------------------------------------------------------|
B|----------------5----------------------------0-----------------------------|
G|------------6---------4--------------2-----------2-------2-----------------|
D|--------6-----------------------2--------2-----------2---------------------|
A|----4------------2----------0----------------------------------------------|
E|---------------------------------------------------------------------------|

Verse

Chorus (x2)

Bridge:
                   C#m          A2
Cause you're all i want, all i need
         E           B
your everything, everything  (x4)


Chorus

Picked chorus again.


---------------------------------------------------

Thats all folks! please leave comments and suggestions below! Love ya! x
Tap to rate this tab
 
# A B C D E F G H I J K L M N O P Q R S T U V W X Y Z