Song name
# A B C D E F G H I J K L M N O P Q R S T U V W X Y Z

Ligabue - Tutti Vogliono Viaggiare In Prima tab

Song: Tutti vogliono viaggiare in prima
Artist: Ligabue
Album: Fuori come va?

tabbed by Francy [ITA]
My name is Francesco Giampiccolo, if you have any question ask me... My e-mail address 
francesco.giampiccolo@virgilio.it

intro(palm muted riff 1)
F5 C5 G5 A5 C5

e|------------------------------------------------------------|
B|------------------------------------------------------------|
G|------------------------------------------------------------|
D|----------5xxxxxxxx-----------------------------------------|
A|3xxxxxxxx-3xxxxxxxx-5xxxxxxxx-7xxxxxx/10xx------------------|
E|1xxxxxxxx-----------3xxxxxxxx-5xxxxxx/-8xx------------------|

F5
Quelli come me
C5
si svegliano alle tre
G5 A5 C5
e dicono che i giorni sono corti.
F5
E poi quelli come me
C5
si svegliano a metà
G5 A5 C5
e rimangono coi sogni mezzi aperti.
 
Prechorus 1:
 
e|------------------------------------------------------------|
B|---------------------8--------------------------------------|
G|-5-------------5-9-9---9--5-4-5-5---------------------------|
D|---7-5--5--5-7----------------------------------------------|
A|------------------------------------------------------------|
E|------------------------------------------------------------|
 
F5
Avrai ragione te
C5 
a fare come fai
G5
a stare con chi vince
A5 C5
a cambiarti le camicie
F5
Ma sta a vedere che
C5
sappiamo già com'è
 G5 A5
ci riposiamo solo dopo morti
 
Riff2(nel Chorus)
e|------------------------------------------------------------|
B|------------------------------------------------------------|
G|---5-7-5-7---5-7-5-7----------------------------------------|
D|-5---------5------------------------------------------------|
A|------------------------------------------------------------|
E|------------------------------------------------------------|
 
e|------------------------------------------------------------|
B|------------------8-----------------------------------------|
G|---5-7-5-7---5-7--------------------------------------------|
D|-5---------5------------------------------------------------|
A|------------------------------------------------------------|
E|------------------------------------------------------------|

F C 
Tutti vogliono viaggiare in prima
G Am C
l'hostess che c'ha tutto quel che vuoi.
F C 
Tutti quanti con il drink in mano
G
e sotto come va?
Am C
fuori come va?
(palm muted) F5 C5 G5 A5 C5
fuori come va?

guit.1: palm mute riff 1
F5 C5 G5 A5 C5
e|------------------------------------------------------------|
B|------------------------------------------------------------|
G|------------------------------------------------------------|
D|----------5xxxxxxxx-----------------------------------------|
A|3xxxxxxxx-3xxxxxxxx-5xxxxxxxx-7xxxxxx/10xx------------------|
E|1xxxxxxxx-----------3xxxxxxxx-5xxxxxx/-8xx------------------|
 
guit.2: riff3
e|------------------------------------------------------------|
B|--------------8----8----------------------------------------|
G|---77777-555------------------------------------------------|
D|-5----------5---5-------------------------------------------|
A|------------------------------------------------------------|
E|------------------------------------------------------------|

F5
Quelli come me
C5
si va finchè ce n'è
G5 A5 C5
ma è come non venisse mai il momento.
F5
Quei progetti lì
C5
e quei difetti lì
G5 A5 C5
che ci fanno stare più contenti.
 
 
Prechorus 1:
 
e|------------------------------------------------------------|
B|---------------------8--------------------------------------|
G|-5-------------5-9-9---9--5-4-5-5---------------------------|
D|---7-5--5--5-7----------------------------------------------|
A|------------------------------------------------------------|
E|------------------------------------------------------------|
 
F5
Avrai ragione te
C5
a fare come fai
G5
a startene da furbo
A5 C5
nel mondo dei più furbi
F5
Ma sta a vedere che 
C5
sappiamo già com'è
G5 A5 C5 
non ci teniamo a togliere il disturbo.
 
Guit.1: Riff2 (nel Chorus)
e|------------------------------------------------------------|
B|------------------------------------------------------------|
G|---5-7-5-7---5-7-5-7----------------------------------------|
D|-5---------5------------------------------------------------|
A|------------------------------------------------------------|
E|------------------------------------------------------------|

e|------------------------------------------------------------|
B|------------------8-----------------------------------------|
G|---5-7-5-7---5-7--------------------------------------------|
D|-5---------5------------------------------------------------|
A|------------------------------------------------------------|
E|------------------------------------------------------------|
 
 
 
F C 
Tutti vogliono viaggiare in prima
G Am C
l'hostess che c'ha tutto quel che vuoi.
F C 
Tutti quanti con il drink in mano
G
e sotto come va?
Am C
fuori come va?

Guit.2: Riff4
e|------------------------------------------------------------|
B|---13-15--13-15------13-15-13--15---------------------------|
G|12---------------12-----------------------------------------|
D|------------------------------------------------------------|
A|------------------------------------------------------------|
E|------------------------------------------------------------|

e|----------------------------15------------------------------|
B|---13-15--13-15------13-15-----15---------------------------|
G|12---------------12-----------------------------------------|
D|------------------------------------------------------------|
A|------------------------------------------------------------|
E|------------------------------------------------------------|

F C
Tutti vogliono viaggiare in prima
G Am C
e che il viaggio non finisca mai
F C
tutti con il posto al finestrino
G 
e sotto come va?
Am C
fuori come va?
 
Guit.1(palm muted riff 1)
F5 C5 G5 A5 C5
e|------------------------------------------------------------|
B|------------------------------------------------------------|
G|------------------------------------------------------------|
D|----------5xxxxxxxx-----------------------------------------|
A|3xxxxxxxx-3xxxxxxxx-5xxxxxxxx-7xxxxxx/10xx------------------|
E|1xxxxxxxx-----------3xxxxxxxx-5xxxxxx/-8xx------------------|
 
Guit.2:
e|------------------------------------------------------------|
B|---------------------8--------------------------------------|
G|-5-------------5-9-9---9--5-4-5-5---------------------------|
D|---7-5--5--5-7----------------------------------------------|
A|------------------------------------------------------------|
E|------------------------------------------------------------|
 
fuori come va?
 
e|15-------15-------15-------15-------------------------------|
B|---13-15----13-15----13-15----13--15------------------------|
G|------------------------------------------------------------|
D|------------------------------------------------------------|
A|------------------------------------------------------------|
E|------------------------------------------------------------|
 
fuori come va?
 
e|15-------15-------15-------15-------------------------------|
B|---13-15-----13-15----13-15----13--15-----------------------|
G|------------------------------------------------------------|
D|------------------------------------------------------------|
A|------------------------------------------------------------|
E|------------------------------------------------------------|
 
 
 
Guit.1: Riff2 (nel Chorus)
e|------------------------------------------------------------|
B|------------------------------------------------------------|
G|---5-7-5-7---5-7-5-7----------------------------------------|
D|-5---------5------------------------------------------------|
A|------------------------------------------------------------|
E|------------------------------------------------------------|

e|------------------------------------------------------------|
B|------------------8-----------------------------------------|
G|---5-7-5-7---5-7--------------------------------------------|
D|-5---------5------------------------------------------------|
A|------------------------------------------------------------|
E|------------------------------------------------------------|

F
Siamo quelli che
C
da quelli come te
G Am
non si fanno mai pagar da bere.
C F
Perchè siamo quelli che
C
è meglio se lo sai
G Am 
con quelli come te son sempre pari.

e|15-------15-------15-------15-------------------------------|
B|---13-15-----13-15----13-15----13--15-----------------------|
G|------------------------------------------------------------|
D|------------------------------------------------------------|
A|------------------------------------------------------------|
E|------------------------------------------------------------|
 
C F C G Am C 
Che qua tutti vogliono viaggiare in prima
F C 
Tutti quanti con il drink in mano,
G 
e sotto come va?
Am C
fuori come va?
F C G Am C
Tutti vogliono viaggiare in prima
F C
Tutti con il posto finestrino
G
e sotto come va?
Am C
fuori come va?
 
 
Outro:
e|13-13-13-13-13-13-13-13-12-12-12-12-12-12-12-12-12----------|
B|13-13-13-13-13-13-13-13-13-13-13-13-13-13-13-13-13----------|
G|------------------------------------------------------------|
D|------------------------------------------------------------|
A|------------------------------------------------------------|
E|------------------------------------------------------------|

e|13-13-13-13-13-13-13-13-12-12-12-12-12-12-12-12-12-13-------|
B|13-13-13-13-13-13-13-13-13-13-13-13-13-13-13-13-13-13-------|
G|------------------------------------------------------------|
D|------------------------------------------------------------|
A|------------------------------------------------------------|
E|------------------------------------------------------------|
 
e|13-13-13-13-13-13-13-13-12-12-12-12-12-12-12-12-12----------|
B|13-13-13-13-13-13-13-13-13-13-13-13-13-13-13-13-13----------|
G|------------------------------------------------------------|
D|------------------------------------------------------------|
A|------------------------------------------------------------|
E|------------------------------------------------------------|

e|13-13-13-13-13-13-13-13-12-12-12-12-12-12-12-12-12-13-------|
B|13-13-13-13-13-13-13-13-13-13-13-13-13-13-13-13-13-13-------|
G|------------------------------------------------------------|
D|------------------------------------------------------------|
A|------------------------------------------------------------|
E|------------------------------------------------------------|

Tap to rate this tab
 
# A B C D E F G H I J K L M N O P Q R S T U V W X Y Z