Ligabue - Quando Canterai La Tua Canzone tab

Tune: Standard

Intro

C5 - C5/F - C5 - C5/F - E5 - E5/G - F5 - G5
 |
 |
 v
   C5
|----------------------|----------------------|
|----------------------|----------------------|
|--5-5---5-5---5-5-----|--5-5---5-5---5-5-----|
|--5-5---3-3---5-5-----|--5-5---3-3---5-5-----|
|--3-3---3-3---3-3-----|--3-3---3-3---3-3-----|
|----------------------|----------------------|

  C5  C5/F  E5  E5/G  F5   G5
|----|----|----|----|----|-----|
|----|----|----|----|----|-----|
|--5-|--5-|----|----|----|-----|
|--5-|--3-|--2-|--2-|--3-|--5--|
|--3-|--3-|--2-|--2-|--3-|--5--|
|----|----|--0-|--3-|--1-|--3--|

Verse (Palm muting)

C5
Son stati giorni che han lasciato il segno
E5
e stare al mondo e gia di piu un impegno
A5
e adesso giri con in tasca un pugno
F5 D5
nell altra tasca il tuo rimario

l impatto con il mondo e sempre forte
per chi vorrebbe solo farne parte
e avere almeno due o tre cose certe
e avere un dio che si diverte

Chorus

G5
ma scegli tu fra botte e rime
D5
e scegli tu fra inizio e fine
F5
e scegli tu
ma scegli tu per primo
C5 D5
e quando canterai la tua canzone
E5
la canterai con tutto il tuo volume
F5
lasciando qualcun altro a commentare
G5
che tu devi andare

son stati giorni di tempesta e vento
ed era pronto solo chi era pronto
ma adesso sai a cosa vai incontro
chi non e morto e gia piu forte

l impatto con il mondo e sempre duro
per chi lo vede come un posto scuro
vorrei poterti essere utile davvero
poterti dire che sei al sicuro

ma scegli tu fra botte e rime
e scegli tu fra inizio e fine
e scegli tu
ma scegli tu per primo

e quando canterai la tua canzone
e te ne fregherai di quanto piove
la urlerai in faccia a chi non vuole
e non sa sentire

e quando canterai la tua canzone
la rabbia l innocenza e l illusione
ti tocchera cantare l emozione
che non sa nessuno

Solo

|-7-8-7----|--7-8-7-----|-7-8-7---|-7-8-7---|-7-8-7-----|-7-8-7---|-10------|
|-------5--|--------5-5-|-------5-|-------6-|-------6-6-|-------6-|----8-8--|
|----------|------------|---------|---------|-----------|---------|---------|
|----------|------------|---------|---------|-----------|---------|---------|
|----------|------------|---------|---------|-----------|---------|---------|
|----------|------------|---------|---------|-----------|---------|---------|

|-10-----10-|-11-10-8-7--|-8-------|-8-----8--|-10-----10-|-11-10---10-|
|----8-8----|------------|---6-6---|---6-6----|----8-8----|-------8----|
|-----------|------------|---------|----------|-----------|------------|
|-----------|------------|---------|----------|-----------|------------|
|-----------|------------|---------|----------|-----------|------------|
|-----------|------------|---------|----------|-----------|------------|


e quando canterai la tua canzone
da quel momento in poi non puoi tornare
da quel momento in poi dovrai andare
con le tue parole

e quando canterai la tua canzone
la canterai con tutto il tuo volume
che sia per tre minuti o per la vita
avra su il tuo nome

Outro

C5 - C5/F - C5 - C5/F - C5 - C5/F

Tap to rate this tab
 
# A B C D E F G H I J K L M N O P Q R S T U V W X Y Z