Song name
# A B C D E F G H I J K L M N O P Q R S T U V W X Y Z

Ligabue - In Pieno Rock N Roll tab

IN PIENO ROCK'n'ROLL (Ligabue)

riff intro e rit.

----------------------------------------|
----------------------------------------|
--------------------4h555454------------|       x2
-----5557-7-7-7---------------5---------|
----------------------------------------|
----------------------------------------|


-------------------------------------|
-------------------------------------|
-------------------4444555-----------|
-----5557-7-7-7----------------------|
-------------------------------------|
-------------------------------------|


------------------------------------|
------------------------------------|
--------------------4h555454--------|
-----5557-7-7-7---------------5-----|
------------------------------------|
------------------------------------|

------------------------------------------|
------------------------------------------|
-------------------4444555555555/777------|
-----5557-7-7-7---------------------------|
------------------------------------------|
------------------------------------------|


strofa+rit_

G C G

Em D C
Tap to rate this tab
# A B C D E F G H I J K L M N O P Q R S T U V W X Y Z