Song name
# A B C D E F G H I J K L M N O P Q R S T U V W X Y Z

Ligabue - Qualcuno Ha Visto Per Caso Il Mio Cane Blu Elettrico Monofase tab

 QUALCUNO HA VISTO, PER CASO, IL MIO CANE BLU ELETTRICO MONOFASE?

              "Miss Mondo" - 1999 - Luciano Ligabue

( Posted by -Little Hawk- )

                                                (2 v.)
e---||----------------------------------------------||-----|
B---||----------------------------------------------||-----|
D---||.--------------------------------------------.||-----|
G---||.--------------------------------------------.||-----|
A---||---12--14--12--11--12--11--9--9--9--7--7--7---||-----|
E---||----0---0---0---0---0---0--0--0--0--0--0--0---||-----|


e-----------------------------------------------------------|-|
B-----------------------------------------------------------|-|
D-----------------------------------------------------------|-|
G-----------------------------------------------------------|-|
A---5--7--5--4----5-4--2--0--2--2--2-2----2-0-2-0-2-0-2-0-2-|-|
E---0--0--0--0--0-0-0--0--0--0--0--0-0--0-0-0-0-0-0-0-0-0-0-|-|
Tap to rate this tab
# A B C D E F G H I J K L M N O P Q R S T U V W X Y Z