Guitaretab - guitar tabs
Song name
# A B C D E F G H I J K L M N O P Q R S T U V W X Y Z

Ligabue - Ti Sento tab

---------------------------------------------
SONG Title: Ti Sento
ARTIST/GROUP: Ligabue
TRANSCRIBED By: Francesco@inwind.it
---------------------------------------------
 
riff (x5)
(durante tutta la canzone)
 
e|--------------------|
B|--------------------|
G|--775777577757957---|
D|--555555555555555---|
A|--------------------|
E|--------------------|
 
strofa
G C Em D4 D7 
C D Em Bm D C F
[ Tab from: http://www.guitaretab.com/l/ligabue/77666.html ]
rit.
Em D C Em/B Am C/G D/F# D 
Bm C C/Bm Am C 
 
G C
Ti sento nell'aria che è cambiata
Em
Che anticipa l'estate
D4 D7
E che mi strina un po'
C D Em
Io ti sento passarmi nella schiena
Bm D
La vita non è in rima
C F
Per quello che ne so
G C
Ti sento nel mezzo di una strofa
Em
Di un pezzo che era loffio
D4 D7
E adesso non lo è più
C D Em
Io ti sento lo stomaco che si chiude
Bm D 
Il resto se la ride
C F
Appena ridi tu 
Em D C Em/B
qui con la vita non si può mai dire
Am C/G D/F# D
Arrivi quando sembri andata via
Bm C
Ti sento dentro tutte le canzoni
C/Bm Am C
In un posto dentro che so io
G
Ti sento
C
E parlo di profumo
Em
T'infili in un pensiero
D4 D7
E non lo molli mai
C
Io ti sento
D Em
Al punto che disturbi
Bm D
Al punto che è già tardi
C F
Rimani quanto vuoi
Em D C Em/B
qui con la vita non si può mai dire
Am C/G D/F# D
Arrivi quando sembri andata via
Bm C
Ti sento dentro tutte le canzoni
C/Bm Am C
In un posto dentro che so sempre io
 
 
e|---12-10---------------12-10--------------------------------|
B|12-------12-10-12---12-------12-10-12-----------------------|
G|-------------------------------------------12-12h14-12------|
D|----------------------------------------14-------------14-12|
A|------------------------------------------------------------|
E|------------------------------------------------------------|
 
C
Io ti sento
D Em
C'ho il sole dritto in faccia
Bm D
E sotto la mia buccia
C F
Che cosa mi farai
 
 
e|------------------------------------------------------------|
B|17--19--15--12---19-----------------------------------------|
G|------------------------------------------------------------|
D|------------------------------------------------------------|
A|------------------------------------------------------------|
E|------------------------------------------------------------|
 
 
e|--------------------|
B|--------------------|
G|--775777577757957---|
D|--555555555555555---|
A|--------------------|
E|--------------------|

e|--------------------|
B|--------------------|
G|--775777577757957---|
D|--555555555555555---|
A|--------------------|
E|--------------------|
 
e|-------------------------------------------------------------|
B|-------------------------------------------------------------|
G|11-12-14-16-17--19-19-19-17-19-19-19-17-19-19-19-17-19-21-12-|
D|----------------17-17-17-17-17-17-17-17-17-17-17-17-17-17-12-|
A|-------------------------------------------------------------|
E|-------------------------------------------------------------|
Related for Ti Sento tab