Song name
# A B C D E F G H I J K L M N O P Q R S T U V W X Y Z

Light This City - Exile tab

This is my first tab so go easy on me :P


Guitar 1
D|------------|
A|------------|
F|------------|
C|9-9-10-7-5~-|
G|------------|
C|------------|

   Fast Pick These (didn't feel like writing them all down :P)
|---------------------------------------------------------|
|---------------------------------------------------------|
|---------------------------------------------------------|
|---------------------------------------------------------| X4
|3---3---3-3---3-5-3-3---3---3-3---2-3-2-3----------------|
|--5---5-----7---------3---3-----2------------------------|


|---------------------------------------------------------|
|---------------------------------------------------------|
|9-9-10-7-5~---9-9-10-9-7~-7-9-10-9-----------------------|
|------------------------------------10~------------------|
|---------------------------------------------------------|
|---------------------------------------------------------|


|---------------------------------------------------------|
|---------------------------------------------------------|
|5-7-9-10-10-10-9-7~-7-9-10-9~----------------------------|
|---------------------------------------------------------|
|---------------------------------------------------------|
|---------------------------------------------------------|

|---------------------------------------------------------|
|---------------------------------------------------------|
|5-7-9-10-10-10-9-7~-7-9-10-9-----------------------------|
|-----------------------------10~-------------------------|
|---------------------------------------------------------|
|---------------------------------------------------------|

|---------------------------------------------------------|
|---------------------------------------------------------|
|5-7-9-10-10-10-9-7~-7-9-10-12~---------------------------|
|---------------------------------------------------------|
|---------------------------------------------------------|
|---------------------------------------------------------|

                 All of this X4                (as 10's)
|--------------------------------------------------------------------------|
|--------------------------------------------------------------------------|
|--------------------------------------------------------------------------|
|777777777-7/5----------------777777777-7/5--10101010101010--9999h10p9-----|
|--------------777777777-7/10----------------------------------------------|
|--------------------------------------------------------------------------|
  .. .. ..      .. .. ..       .. .. ..         . .  . .      ..


    T                               Now my favorite part :D
|---------------------------------------------------------|
|---------------------------------------------------------|
|7-10-12-7-9-10-12-10-9-10-9~-----------------------------|
|---------------------------------------------------------|
|---------------------------------------------------------|
|---------------------------------------------------------|

    T
|---------------------------------------------------------|
|---------------------------------------------------------|
|7-10-12-7-9-14-12-10-9-10-9~-----------------------------|
|---------------------------------------------------------|
|---------------------------------------------------------|
|---------------------------------------------------------|

    T
|---------------------------------------------------------|
|---------------------------------------------------------|
|7-10-12-7-9-10-12-10-9-10-9~-----------------------------|
|---------------------------------------------------------|
|---------------------------------------------------------|
|---------------------------------------------------------|


    T
|---------------------------------------------------------|
|---------------------------------------------------------|
|7-10-12-7-9-14-12-10-9-10-9~-----------------------------|
|---------------------------------------------------------|
|---------------------------------------------------------|
|---------------------------------------------------------|


                 All of this X4                (as 10's)
|--------------------------------------------------------------------------|
|--------------------------------------------------------------------------|
|--------------------------------------------------------------------------|
|777777777-7/5----------------777777777-7/5--10101010101010--9999h10p9-----|
|--------------777777777-7/10----------------------------------------------|
|--------------------------------------------------------------------------|
  .. .. ..      .. .. ..       .. .. ..         . .  . .      ..


I'm still trying to tab out the rest
plz rate =]


Key:
/ = slide up or down
T = tremelo
. = palm mute
h = hammer-on
p = pull-off
Tap to rate this tab
# A B C D E F G H I J K L M N O P Q R S T U V W X Y Z