Song name
# A B C D E F G H I J K L M N O P Q R S T U V W X Y Z

Lightnin Hopkins - Baby Please Dont Go tab

----------------------------------------------------------------------------
	          BABY PLEASE DON'T GO - Lightnin Hopkins
----------------------------------------------------------------------------
Tabbed by:  Andrew Davis
Email:  cleanloud444@gmail.com

Tuning:  standard/normal

e|------------|----0--0--3---0-|--------------|----0--0--3--0-|
B|------------|----------------|-3\5----------|---------------|
G|------------|----------------|--------------|---------------|
D|------------|----------------|--------------|---------------|
A|------------|----------------|--------------|---------------|
E|-0--0--0--0-|-0--0-----0---0-|-0----0--0--0-|-0--0-----0--0-|

e|--------------|----0--0--3--0-|--------------|----------------|----------|
B|-5/3----------|---------------|-3\5-----3----|-0--------------|----------|
G|--------------|---------------|--------------|-------2-0------|----------|
D|--------------|---------------|--------------|-----------2-0--|-2--------|
A|--------------|---------------|--------------|----------------|----------|
E|-0----0--0--0-|-0--0-----0--0-|-0----0--0--0-|-0--0--0---0----|-0-0-0-0-0|



| /  slide up
| \  slide down


============================================================================
Tap to rate this tab
 
# A B C D E F G H I J K L M N O P Q R S T U V W X Y Z