Song name
# A B C D E F G H I J K L M N O P Q R S T U V W X Y Z

Lil Rain - Adore You chords

Highlighted       Show chord diagrams
-------------------------------------------------------------------------------
			     ADORE YOU - Lil Rain
-------------------------------------------------------------------------------
Tabbed by:Taylor Thompson
Email:taylorthompson36@hotmail.com

Tuning: Standard

Capo fret 6

    Am        F         C         G
e|--0---------1---------0---------3--------------------------------------------|
B|--1---------1---------1---------0--------------------------------------------|
G|--2---------2---------0---------0--------------------------------------------|
D|--2---------3---------2---------0--------------------------------------------|
A|--0---------x---------3---------2--------------------------------------------|
E|--x---------x---------x---------3--------------------------------------------|

| /  slide up
| \  slide down
| h  hammer-on
| p  pull-off
| ~  vibrato
| +  harmonic
| x  Mute note
===============================================================================
Tap to rate this tab
# A B C D E F G H I J K L M N O P Q R S T U V W X Y Z