Song name
# A B C D E F G H I J K L M N O P Q R S T U V W X Y Z

Lil Wayne - Prom Queen tab

-------------------------------------------------------------------------------
			     Prom Queen - Lil Wayne
-------------------------------------------------------------------------------
Tabbed by:Jesse	
Email:jnewcombe489@aol.com

Tuning:Standard

Intro/Verses
e|---------------------------------------------------------------------------|
B|---------------------------------------------------------------------------|
G|---2---2---2---2---1---1---1---1---4---4---4---4---7---7---9----9----------|
D|-----4---4---4---4---2---2---2---2---6---6---6---6---9---9---11---11-------|
A|---------------------------------------------------------------------------|
E|---------------------------------------------------------------------------|

Chorus
e|---------------------------------------------------------------------------|
B|---------------------------------------------------------------------------|
G|---22222222--11111111--44444444--7777--9--9--9--9--------------------------|
D|---44444444--22222222--66666666--9999-11-11-11-11--------------------------|
A|---44444444--22222222--66666666--9999-11-11-11-11--------------------------|
E|---------------------------------------------------------------------------|

Tap to rate this tab
 
# A B C D E F G H I J K L M N O P Q R S T U V W X Y Z