Song name
# A B C D E F G H I J K L M N O P Q R S T U V W X Y Z

Lil Wayne - Leather So Soft tab

Its the album version...

its sounds more like the first tone was at the end, but because of the beginning i think 
this is the correct way to write it down....

the cool bass first:
press these with your thumb like wayne!
G|-------------------------------------------|
D|------------------------------------------.|
A|------------------------------------------.|
E|-2---------5---4---0--------------0----1---|

high tones:

e|---9-10-9----------------------------------|
H|-----------------------12------------------|
G|------------------------------------------.|
D|------------------------------------------.|
A|-------------------------------------------|
E|-------------------------------------------|

guitar intro (very hard sound):

e|-------------------------------------------|
H|---------------10h12-12b--12-12h13-10-12-10|
G|-11b--------------------------------------.|
D|------------------------------------------.|  play it twice
A|-------------------------------------------|
E|-------------------------------------------|

guitar refrain (some more tones inbetween):
                                 | yeah that sounds cool! |
e|--------------------------------------------------------|
H|--------10h14-14b--10h12-12b---10-12~--10-12h13-10-12-10|
G|-11b---------------------------------------------------.|
D|-------------------------------------------------------.|
A|--------------------------------------------------------|
E|--------------------------------------------------------|
you could also slide the 12h13

if u want to use more than two strings on your guitar try this:

e|------------9--9--.....
H|---------10-------.....
G|-11---------------.....
D|------------------.....
A|------------------.....
E|------------------.....

there might be some more silent or damped tones in the main part, but i cant find 'em 
out... these should be enough anyway

althougt the rhythm can be quite tricky its easy to learn and it sounds good when played 
with a drummer....yeah you need a drummer, but dont ask me what he's doing

i looked up the lead guitar at some other places (thaanx) to get a guideline, but in my 
mind they all had mistakes (you know, every artist hears something dfferent, welcome to 
my reality).....
so this is my version. I figured out the bass and them high tones on my own, as i found 
it nowhere.....
fell free to write in the comments if you find mistakes or if you just want to say that 
i'm cool...
Tap to rate this tab
# A B C D E F G H I J K L M N O P Q R S T U V W X Y Z