Song name
# A B C D E F G H I J K L M N O P Q R S T U V W X Y Z

Lil Wayne - Leather So Soft tab

-------------------------------------------------------------------------------
			     LEATHER SO SOFT - Lil Wayne
-------------------------------------------------------------------------------
Tabbed by: GarretM.
Email: garret_nd21@hotmail.com

Tuning: Standard
Not too sure but it sounds close. Listen to get it exact.

(0:03)w/ wah
e|----------------------------------------------------|
B|------(12)-12~--------12--12b13--10-12-10-----------|
G|---14--------------------------------------11~------|
D|----------------------------------------------------|
A|----------------------------------------------------|
E|----------------------------------------------------|

e|---------------------------------------------------------------|
B|-------14--10--10/12~-----10-12-12b13--10-12b13-10-12-10-------|
G|---11------------------------------------------------------11~-|
D|---------------------------------------------------------------|
A|---------------------------------------------------------------|
E|---------------------------------------------------------------|

Tap to rate this tab
 
# A B C D E F G H I J K L M N O P Q R S T U V W X Y Z