Song name
# A B C D E F G H I J K L M N O P Q R S T U V W X Y Z

Lilb - Tsunaida Te tab

Lil'B - Tsunaida Te 
Tabbed by: Arvin Guinto
Email: arvin_cut3143@yahoo.com

Tuning Standard (E A D G B E)

Chords:

Bm: x24431
G:  355433
A:  577655
D:  x57775
Cm: x46654

Intro:
 
        Bm                  G                 A                D

E||----------------|-----------------|-----------------|-----------------|
B||---------3------|----------3------|----------5------|----------7------|
G||--4-------------|-----------------|-----------------|--7----------7---|
D||------4-----4---|--5----------5---|--7----------7---|-------7---------|
A||--2-------------|-------5---------|-------7---------|--5--------------|
E||----------------|--3--------------|--5--------------|-----------------|

       Bm                   G                 A                D

E||----------------|-----------------|-----------------|-----------------|
B||---------3------|----------3------|----------5------|----------7------|
G||--4-------------|-----------------|-----------------|--7----------7---|
D||------4-----4---|--5----------5---|--7----------7---|-------7---------|
A||--2-------------|-------5---------|-------7---------|--5--------------|
E||----------------|--3--------------|--5--------------|-----------------|

     meguri       megutte     mo   mata koko    de      aitai

       
       Bm                   G                 A                D

E||----------------|-----------------|-----------------|-----------------|
B||---------3------|----------3------|----------5------|----------7~ ----|
G||--4-------------|-----------------|-----------------|--7--------------|
D||------4-----4---|--5----------5---|--7----------7---|-------7---------|
A||--2-------------|-------5---------|-------7---------|--5--------------|
E||----------------|--3--------------|--5--------------|-----------------|

     hagurenai       youni      kono    te  wo     tsunagunda


Rap Part:

  Bm                  G

asahi ga noboru made katari atta ne

  A                D

yuuhi ga shizumu made tsunaida te

  Bm        G               A

kou yatte asu mo asatte mo tomo ni

        D

ayumou hikari to kage


Verse:

 Bm           G           A       D - Cm

kimi wa sono mune ni nani wo kakae

 Bm             G         A        D - Cm

donna sekai ni itandarou ima omou yo

 Bm             G            A        D - Cm

samishige ni mitsumeru machi no naka de

 Bm            G           A         D - Cm

nukumori wa hitori ja mitsukara nakute


Refrain:

   G              Bm        

ai ga konna ni tsuyosa ni naru koto

    A               D          Cm

shittanda kimi ni deaete hajimete


Chorus:


 Bm        G          A        D Cm

meguri meguttemo mata koko de aitai

 Bm        G          A         D  Cm

hagurenai youni kono te wo tsunagunda

 Bm        G             A        D Cm

hitori ja nemurenai yume wa mirenai kara

 Bm      G         A      D 

donna fuan mo todokanai tokoroe

 Bm        G          A           D 

hoshi mo nai yoru mo terashi tsuzukeyou



Then.. Rap.. then Verse...

( Same Chords )

http://www.lilb.jp/
Tap to rate this tab
# A B C D E F G H I J K L M N O P Q R S T U V W X Y Z