Song name
# A B C D E F G H I J K L M N O P Q R S T U V W X Y Z

Limbeck - I Want It That Way tab

#----------------------------------PLEASE NOTE--------------------------------#
#This file is the author's own work and represents their interpretation of the#
#song. You may only use this file for private study, scholarship, or research.#
#-----------------------------------------------------------------------------#
#-- File created with Instab - http://www.pconline.com/~smcarey/instab.html --#
#-----------------------------------------------------------------------------#

Author/Artist: Limbeck
Title: I want it that way
Album: don't know, i have it on mp3
Transcribed by: mr.coneyboy
Email: stone_sour_circus@hotmail.com

yeah, this may be a backstreet boys song, but played by this band, I must admit
that  it sounds great, so download the mp3 boyz and girlz . I still think that the
backstreet boys are stupid and their songs are just about to get chicks,
otherwise, they are gay songs...(no offense to their fans,but it's the
truth) I didn't wanted to finish it because i'm a lazy boy, don't tell me
anything cuz i'm the first one who tabbed thus song.
so, that's all. if you didn't knew, Limbeck is a punk rock band. It
kicks ass!!!

---------------------------------|------2-------------------------------------|
---2-----2----------2--------2---|----2-------2---2---------------------------|
-----3-----3------3--------2---2-|--3-------3-------2-------------------------|
-------4-----4--0--------2-------|--------0-----------------------------------|
-----------------------0---------|--------------0-----------------------------|
-2-------------------------------|-2------------------------------------------|
 F#m              D        A       F#m      D      A

--------2-----------------------|---------------------------------------------|
------2---------2--------2------|---------------------------------------------|
----3---------3--------2---2----|---------------------------------------------|
------------0--------2----------|-x4------------------------------------------|
-------------------0------------|---------------------------------------------|
-2------------------------------|---------------------------------------------|
 Verse: F#5, D5, A5 (palm muted)

------------------------------------------------------------------------------|
------------------------------------------------------------------------------|
-77777777---------------------------------------------------------------------|
-77777777-666-777-----x4------------------------------------------------------|
-55555555-666-777-------------------------------------------------------------|
----------444-555-------------------------------------------------------------|
 Chorus
Tap to rate this tab
# A B C D E F G H I J K L M N O P Q R S T U V W X Y Z