Song name
# A B C D E F G H I J K L M N O P Q R S T U V W X Y Z

Lime Spiders - Slave Girl tab

SLAVE GIRL - LIME SPIDERS
http://www.sdv.fr/pages/dgieff/b_lime.htm   <-- you can find info about Lime Spiders'
discography.
http://www.missinglink.net.au/search.php?item=Lime+Spiders%2C+The   -- info about the
band, because I can't find a website.


There's another guitar for part of it but I only tabbed out the one.
I think it's almost perfect.

e|---------------------------------------------------------|
B|---------------------------------------------------------|
G|---------------------------------------------------------|
D|------------------------------------------------8b9-7-5--|
A|--------22-5-77-5-77-5---------5-22-5-77-5-77-5----------|
E|----3b5-00-3-55-3-55-3-5b7b7b7-3-00-3-55-3-55-3----------|


e|---------------------------------------------------------|
B|---------------------------------------------------------|
G|--------------------------------------------12-12-12-----|
D|--------------------------------------------12-12-12-----|
A|----22-5-77-5-77-5---------5-22-5-77-5-77-5--------------|
E|----00-3-55-3-55-3-5b7b7b7-3-00-3-55-3-55-3--------------|


e|---------------------------------------------------------|
B|--------------------------------------------12-12-12-----|
G|---------------------------------------------------------|
D|---------------------------------------------------------|
A|----22-5-77-5-77-5---------5-22-5-77-5-77-5--------------|
E|----00-3-55-3-55-3-5b7b7b7-3-00-3-55-3-55-3--------------|
 Let me tell ya bout a girl I know, I drag her around wherever I go

e|---------------------------------------------------------|
B|---------------------------------------------------------|
G|---------------------------------------------------------|
D|---------------------------------------------------------|
A|--------22-5-77-5-77-5---------5-2-----------------------|
E|----3b5-00-3-55-3-55-3-5b7b7b7-3-0-----------------------|
This little woman drives me insane;  She's tied to my ankle with a ball and chain.

e|---------------------------------------------------------|
B|--------------------------------------------12-12-12-----|
G|---------------------------------------------------------|
D|---------------------------------------------------------|
A|----22-5-77-5-77-5---------5-22-5-77-5-77-5--------------|
E|----00-3-55-3-55-3-5b7b7b7-3-00-3-55-3-55-3--------------|
For sixteen years she's been hangin' around, trying to bury me in a hole in the ground

e|---------------------------------------------------------|
B|---------------------------------------------------------|
G|---------------------------------------------------------|
D|---------------------------------------------------------|
A|--------22-5-77-5-77-5---------5-2-----------------------|
E|----3b5-00-3-55-3-55-3-5b7b7b7-3-0-----------------------|
Well I think it's time that I evened the score; there's only room for one in this cage 
yours.

e|---------------------------------------------------------|
B|--------------------------------------------12-12-12-----|
G|---------------------------------------------------------|
D|---------------------------------------------------------|
A|----22-5-77-5-77-5---------5-22-5-77-5-77-5--------------|
E|----00-3-55-3-55-3-5b7b7b7-3-00-3-55-3-55-3--------------|
  Don't save me when I'm startin' to drown, don't use me when you don't want me around

e|---------------------------------------------------------|
B|---------------------------------------------------------|
G|---------------------------------------------------------|
D|---------------------------------------------------------|
A|----22-5-77-5-77-5---------5-2---------------------------|
E|----00-3-55-3-55-3-5b7b7b7-3-0---------------------------|
 Just be my slave girl, cuz that's all I need, so take a little step back to the 
with me, GO!

e|---------------------------------------------------------|
B|---------------------------------------------------------|
G|---------------------------------------------------------|
D|------------------------------------------------8b9-7-5--|
A|--------22-5-77-5-77-5---------5-22-5-77-5-77-5----------|
E|----3b5-00-3-55-3-55-3-5b7b7b7-3-00-3-55-3-55-3----------|


e|---------------------------------------------------------|
B|---------------------------------------------------------|
G|--------------------------------------------12-12-12-----|
D|--------------------------------------------12-12-12-----|
A|----22-5-77-5-77-5---------5-22-5-77-5-77-5--------------|
E|----00-3-55-3-55-3-5b7b7b7-3-00-3-55-3-55-3--------------|


e|---------------------------------------------------------|
B|--------------------------------------------12-12-12-----|
G|---------------------------------------------------------|
D|---------------------------------------------------------|
A|----22-5-77-5-77-5---------5-22-5-77-5-77-5--------------|
E|----00-3-55-3-55-3-5b7b7b7-3-00-3-55-3-55-3--------------|
Well I hear a weird sound as I lie in my bed, I feel a lotta water drippin' on my head

e|---------------------------------------------------------|
B|---------------------------------------------------------|
G|---------------------------------------------------------|
D|---------------------------------------------------------|
A|--------22-5-77-5-77-5---------5-1b2b1-------------------|
E|----3b5-00-3-55-3-55-3-5b7b7b7-3-0-----------------------|
I look around, try to see through my hair.  You left me alone, but do you think I care?

e|---------------------------------------------------------|
B|--------------------------------------------12-12-12-----|
G|---------------------------------------------------------|
D|---------------------------------------------------------|
A|----22-5-77-5-77-5---------5-22-5-77-5-77-5--------------|
E|----00-3-55-3-55-3-5b7b7b7-3-00-3-55-3-55-3--------------|
'Cause you moved me when I was takin' my time; you abused me when I was out of line

e|---------------------------------------------------------|
B|---------------------------------------------------------|
G|---------------------------------------------------------|
D|---------------------------------------------------------|
A|----22-5-77-5-77-5---------5-2---------------------------|
E|----00-3-55-3-55-3-5b7b7b7-3-0---------------------------|
Tried to warn me of the danger sign, so watch out:

e|---------------------------------------------------------|
B|---------------------------------------------------------|
G|---------------------------------------------------------|
D|------------------------------------------------8b9-7-5--|
A|--------22-5-77-5-77-5---------5-22-5-77-5-77-5----------|
E|--------00-3-55-3-55-3-5b7b7b7-3-00-3-55-3-55-3----------|


e|---------------------------------------------------------|
B|---------------------------------------------------------|
G|--------------------------------------------12-12-12-----|
D|--------------------------------------------12-12-12-----|
A|----22-5-77-5-77-5---------5-22-5-77-5-77-5--------------|
E|----00-3-55-3-55-3-5b7b7b7-3-00-3-55-3-55-3--------------|

e|---------------------------------------------------------|
B|--------------------------------------------12-12-12-----|
G|---------------------------------------------------------|
D|---------------------------------------------------------|
A|----22-5-77-5-77-5---------5-22-5-77-5-77-5--------------|
E|----00-3-55-3-55-3-5b7b7b7-3-00-3-55-3-55-3--------------|
We're just caught in the bondage of another age, you drive me to depression in a 
way


e|---------------------------------------------------------|
B|---------------------------------------------------------|
G|---------------------------------------------------------|
D|---------------------------------------------------------|
A|--------22-5-77-5-77-5---------5-2-----------------------|
E|----3b5-00-3-55-3-55-3-5b7b7b7-3-0-----------------------|
I can't control my instincts when I hear her say, "Just come around and see me if you 
your way."

e|---------------------------------------------------------|
B|--------------------------------------------12-12-12-----|
G|---------------------------------------------------------|
D|---------------------------------------------------------|
A|----22-5-77-5-77-5---------5-22-5-77-5-77-5--------------|
E|----00-3-55-3-55-3-5b7b7b7-3-00-3-55-3-55-3--------------|
 So join my chain gang, play along with me; I'll be your caveman, it's basic as can be

e|---------------------------------------------------------|
B|---------------------------------------------------------|
G|---------------------------------------------------------|
D|---------------------------------------------------------|
A|----22-5-77-5-77-5---------5-2---------------------------|
E|----00-3-55-3-55-3-5b7b7b7-3-0---------------------------|
I'm not insane man, I'm just outta my tree.
Tap to rate this tab
# A B C D E F G H I J K L M N O P Q R S T U V W X Y Z