Song name
# A B C D E F G H I J K L M N O P Q R S T U V W X Y Z

Lincoln Brewster - I Belong To You tab

I don't have the crazy solos yet...sorry but the album did just come out maybe
soon. But this is the just of the song.

I Belong to You (Electric)
Lincoln Brewster

Intro
---------------------------------------------------------------|
---------------------------------------------------------------|
---------------------------------------------------------------|
---------------------------------------------------------------|
-------2-2-2-2-2-2-2-2-2-2-/-14-14-14-14-14-14-14-14-14-14-----|
-4/11----------------------------------------------------------|

------------------------------------------------------------------|
------------------------------------------------------------------|
-4-4-4-4-4-4-4-4-6-6-6-6-3-3-3-3-4-4-4-4-4-4-4-4-4-4-4-4-4-4-4-4--|
------------------------------------------------------------------|
-2-2-2-2-2-2-2-2-4-4-4-4-1-1-1-1-2-2-2-2-2-2-2-2-2-2-2-2-2-2-2-2--|
------------------------------------------------------------------|

---------------------------------------------------------------------|
---------------------------------------------------------------------|
-8-8-8-8-8-8-8-8-9-9-9-9-6-6-6-6-9/10\9/10\9/10\9/10\9---------------|
---------------------------------------------------------------------|
-6-6-6-6-6-6-6-6-7-7-7-7-4-4-4-4-7/-8\7-/8\7-/8\-7/-8\-7-------------|
---------------------------------------------------------------------|

Verse 1 (Bass only)
B     F      G#   B   C#m   D#
You light my way everyday
B     F      G#   B   C#m   D#
You help me see what I can be
B     F      G#   B   C#m   D#
I cry to You my Spirit song
B     F      G#   B   C#m   D#
Come use my life for You alone

Chorus
B                        F                       G#
You caught my soul when I was struggling to breathe
B                      C#m               E
You made me whole and now Your majesty I see
   B              F             G#
I belong to You
    B             C#m             E
Yes I belong to You

Verse 2
I hear Your voice it leads me on
Into Your arms where I belong
I cry to You my Spirit song
Come use my life for You alone


Bridge (3x)
C#m               F
I know You're everything
B                       C
   You're all I'll ever need
C#m                F                   B
I know You're everything to me

Chorus

Ending
B              F             G#
I belong to you
B                 C#m          E     F#  G#  A#  B (Octaves)
Yes I belong to you
Tap to rate this tab
 
# A B C D E F G H I J K L M N O P Q R S T U V W X Y Z