Song name
# A B C D E F G H I J K L M N O P Q R S T U V W X Y Z

Lincoln Brewster - Real Life tab

 I noticed that everybody that tabbed "Real Life" left out the solo or only
 did the chords and not the intro, etc., so I figured since I know the solo
 pretty well I'd tab it for everyone. Enjoy.  ;)

(Timing is hard to show on a tab so to figure it out you'll have to listen to the 
actual recording)
e---------------------------------------------------------------------------|
B-----------------------------------------------15--------------------------|
G----7-9h11-7h9~---11b12-7~--11b12r11-------12-----12h14~-------------------|
D--9-----------------------------------9~-----------------------------------|
A---------------------------------------------------------------------------|
E---------------------------------------------------------------------------|


e---------------------------------------------------------------------------|
B--------------------s15--13-13--12-12--10p8~-s15--13-13--12-12--10-10------|
G--12-14h16-12--------------------------------------------------------------|
D--------------14-----------------------------------------------------------|
A---------------------------------------------------------------------------|
E---------------------------------------------------------------------------|


e-------------------15---17---19b21r19-17p15h17~--17b19r17-17p15h17h19-15~--|
B--12-12h15p12~---15---15---15----------------------------------------------|
G---------------------------------------------------------------------------|
D---------------------------------------------------------------------------|
A---------------------------------------------------------------------------|
E---------------------------------------------------------------------------|


e--14b15r14-----------------------------------------------------------------|
B-------------------15------------------------------------------------------|
G-------------14s16----14s12s11--------11b12r11-----------------------------|
D-------------------------------12-14~----------12s14s12~----7-5~-----------|
A---------------------------------------------------------------------------|
E---------------------------------------------------------------------------|

There ya have it. Hope its good enough. :D

Legend:
h: hammer-on
p: pull-off
s: slide
b: bend
r: release previous bend
~: vibrato
//: pick slide up
\\: pick slide down
ph: pick harmonic
ah: artificial harmonic
(#): regular harmonic

Tabbed by: 9natedawg
5/12/11
Tap to rate this tab
 
# A B C D E F G H I J K L M N O P Q R S T U V W X Y Z