Song name
# A B C D E F G H I J K L M N O P Q R S T U V W X Y Z

Lincoln Brewster - Whom Shall I Fear tab

Key:

/ -- Slide Up
\ -- Slide Down
h -- Hammer On
p -- Pull Off
b -- Bend
r -- Release Bend
* -- Palm Mute

Tuning: Standard

-----------------------------------------------------------------------------|
-----------12-15-12-12-------------15-15-12-12-------------------------------|
----12--14-------------14-14-12-12-------------14-14-12-12-11-11/12\11-------|
-/12--------------------------------------------------------------------12---|
-----------------------------------------------------------------------------|
-----------------------------------------------------------------------------|

-15--14-12--14----------------20b-19-19-17-17------------20b-19-19-17-17-----|
--------------15--12-12h15p12----------------20-20-19/20---------------------|
-----------------------------------------------------------------------------|
-----------------------------------------------------------------------------|
-----------------------------------------------------------------------------|
-----------------------------------------------------------------------------|

------------------------------------------------------------------------------|
20-20-19-19/20\19------------------15-----------------------------------------|
-----------------19--19br-16--14-16--14-16------------------------------------|
------------------------------------------17-16-14-12-12-14-------------------|
-----------------------------------------------------------12-10-12-14-10--12-|
------------------------------------------------------------------------------|
                                                   *
Tap to rate this tab
 
# A B C D E F G H I J K L M N O P Q R S T U V W X Y Z