Song name
# A B C D E F G H I J K L M N O P Q R S T U V W X Y Z

Lincoln Brewster - Spin tab

Verses:
E      G#m    A      B
E      G#m    A      B
E      G#m    A      B
E      G#m    A      B

Bridge:
C#     G#m    C#     G#m
E      G#m    A      B
A      B      E

Chorus:
E      B      A      B
E      B      A      B
E      B      A      B      C#m    D

Interlude (Do Throughout 3rd Verse)
E--------------|--------------|---------------|--------------|
B--7--7-----7--|--6--6-----6--|---------7-----|--------9-----|
G--------6-----|--------6-----|--6--h8-----8--|--6--6-----6--|
D--------------|--------------|---------------|--------------|
A--------------|--------------|---------------|--------------|
E--------------|--------------|---------------|--------------|

Bass:
G--9--9-----9--|--8--8-----9--|----------9----|--------11-------|
D--------9-----|--------9-----|--9--h11--11---|--9--9------9----|
A--------------|--------------|---------------|-----------------|
E--------------|--------------|---------------|-----------------|

Ending Bridge:
C#m    G#m    C#     G#m
E      G#m    A      B
A      B      E
Tap to rate this tab
# A B C D E F G H I J K L M N O P Q R S T U V W X Y Z