Guitaretab - guitar tabs
Song name
# A B C D E F G H I J K L M N O P Q R S T U V W X Y Z

Lincoln Brewster - Everlasting God tab

Everlasting God - Brenton Brown

Standard tuning/Capo 3rd fret

Intro/Verse:
                                                   G/B
e---------------------------------------------------3----------|
B---------------------------------------------------3----------|
G---------------------------------------------------0----------|
D--0-0-0--------------------------------------------0----------|
A--------0-2-3-3-2-0---0-2-3-3-2-0---0-2-3-3-2-0----2----------|
E--------------------3-------------3-------------3--3----------|

Strength-will-rise-as-we-wait-u-pon-the-Lord

As-we-wait-u-pon-the-Lord
                          
As-we-wait-u-pon-the-Lord  G/B
(repeat)**

Pre-Chorus:

e--3-----3-----3----3-----3-----3-----3-----------------------|
B--3-----3-----3-----3-----3-----3-----3-----------------------|
G--0-----0-----0-----0-----0-----0-----0-----------------------|
D--0-----2-----0-----2-----0-----2-----0-----------------------|
A-2-----3-----2-----3-----x-----x-----x-----------------------|
E--x-----x-----x-----x-----x-----x-----x-----------------------|
[ Tab from: http://www.guitaretab.com/l/lincoln-brewster/150536.html ]
 Our    God    you  reign  for-  ev-  er
 Our   Hope    Our  strong de-  liv-  rer


Chorus:

  G/B   C2    Em7   Am7    D    C2 
e--3-----3-----3----0-----2-----3-----------------------------|
B--3-----3-----3-----1-----3-----3-----------------------------|
G--0-----0-----0-----0-----2-----0-----------------------------|
D--0-----2-----2-----2-----0-----2-----------------------------|
A-2-----3-----2-----------------3-----------------------------|
E--3-----------------------------------------------------------|

G/B                          C2
You are the everlasting God
                Em7
the everlasting God
                     Am7    D   C2   
You do not faint You won't grow weary
    G                              C2
and You're the defender of the weak
                         Em7
You comfort those in need
                  Am7   D    C2    
You lift us up on wings like eagles


**words correspond with each individual note

email doublestickktape@gmail.com if you have any questions/comments
this is only my 2nd time doing a tab so sorry if it's confusing, haha
Related for Everlasting God tab