Song name
# A B C D E F G H I J K L M N O P Q R S T U V W X Y Z

Lincoln Brewster - Love The Lord tab

Standard guitar tuning
Written by Lincoln Brewster
Tabbed by Cody Grey


e|----------------------------------------------------------------------|
B|---10h12-12-12--10-10--8--8--8--10---10h12-12-12--10-10--8--8--8------|
G|---10h12-12-12--11-11--9--9--9--11---10h12-12-12--11-11--9--9--9------|
D|---10h12-12-12--12-12--10-10-10-12---10h12-12-12--12-12--10-10-10-----|
A|----------------------------------------------------------------------|
E|----------------------------------------------------------------------|

e|----------------------------------------------------------------------|
B|---10h12-12-12--10-10--8--8--8--10---14b-14-12----12----------12------|
G|---10h12-12-12--11-11--9--9--9--11-------------14----14-12h14---------|
D|---10h12-12-12--12-12--10-10-10-12------------------------------------|
A|----------------------------------------------------------------------|
E|----------------------------------------------------------------------|

e|----------------------------------------------------------------------|
B|---10h12-12-12--10-10--8--8--8--10---10h12-12-12--10-10--8--8--8------|
G|---10h12-12-12--11-11--9--9--9--11---10h12-12-12--11-11--9--9--9------|
D|---10h12-12-12--12-12--10-10-10-12---10h12-12-12--12-12--10-10-10-----|
A|----------------------------------------------------------------------|
E|----------------------------------------------------------------------|

e|-----------------------------------------------------------------------|
B|---10h12-12-12--10-10--8--8--8--10---10h12-12-12--10---10h12-12-12--10-|
G|---10h12-12-12--11-11--9--9--9--11---10h12-12-12--11---10h12-12-12--11-|
D|---10h12-12-12--12-12--10-10-10-12---10h12-12-12--12---10h12-12-12--12-|
A|-----------------------------------------------------------------------|
E|-----------------------------------------------------------------------|
Tap to rate this tab
# A B C D E F G H I J K L M N O P Q R S T U V W X Y Z