Song name
# A B C D E F G H I J K L M N O P Q R S T U V W X Y Z

Linda Martini - Amor Combate tab

|---------------------------------------|-------------------------------------|
|---------------------------------------|-------------------------------------|
|----9------9------9------9------9------|----12-----12-----12-----12-----12---|
|------10-----10-----10-----10-----10---|-------9------9------9------9------9-|
|--0------0------0------0------0--------|--0------0------0------0------0------|
|---------------------------------------|-------------------------------------|

|------------------------------------------|----------------------------------0-|
|------------------------------------------|------------------12-----10-----0---|
|----10------10------10------10------10----|----9------9---------9------9-------|
|-------12------12------12------12------12-|------10-----10---------------------|
|--0-------0-------0-------0-------0-------|--0------0------0------0------0-----|
|------------------------------------------|------------------------------------|
Tap to rate this tab
 
# A B C D E F G H I J K L M N O P Q R S T U V W X Y Z