Linkin Park - Waiting For The End tab

Standard

Piano plays this throughout the song
e-12-12--|
b--------|
g--------|
d--------|
b--------|
e--------|

Synth
e---------|
b--//5~---| increase
g---------|  volume
d---------|
a---------| play when
e---------|  needed

Guitar 0:00-0:11
(Distortion.  Idk what effects.)
e-------------------------------|
b-------------------------------|
g-8-9--8-9--8-9--8-9-8-9-9--9-9-|  repeat
d-------------------------------|
a-------------------------------|
e-------------------------------|

Guitar 1(Starts at 0:12.  Listen to when to strum it)
e------------|
b------------|
g------------|
d-2~-----2~--|
a-2~-----2~--|
e-0~-----0~--|

Guitar 2 (Played very quietly)
e-------------------------------|
b-------------------------------|
g-8-9--8-9--8-9--8-9-8-9-9--9-9-|  repeat
d-------------------------------|
a-------------------------------|
e-------------------------------|

Synth (either let it ring or tremelo pick it)
Part A
0:48-1:31
e-12~------9~-----------------------------|
b------------------10~------9~------------|
g---------------------------------11~-----| 2x
d-----------------------------------------|
a-----------------------------------------|
e-----------------------------------------|

Part B
1:33-1:53
e-9~-------------9~----------------------------------9~----------------|
b--------10~-------------10~-------9~-------12~---------------10~------|
g----------------------------------------------------------------------|
d----------------------------------------------------------------------|
a----------------------------------------------------------------------|
e----------------------------------------------------------------------|

Synth Part A 1:57-2:19

Guitar
1:57-2:19
e----------------------------------------------------------------|
b----------------------------------------------------------------|
g-1~--1-1--1-1-1--1~--1-1--1-1-1--6~--6-6--6-6-6--6~--6-6--6-6-6-| 2x
d-2~--2-2--2-2-2--2~--2-2--2-2-2--7~--7-7--7-7-7--7~--7-7--7-7-7-|
a-2~--2-2--2-2-2--2~--2-2--2-2-2--7~--7-7--7-7-7--7~--7-7--7-7-7-|
e-0~--0-0--0-0-0--0~--0-0--0-0-0--5~--5-5--5-5-5--5~--5-5--5-5-5-|

Synth Part B 2:20

Guitar
2:20-2:41
e-------------------------------------------------|
b-5-5-5-5-5-5-------------5-5-5-5-5-5-------------|
g-6-6-6-6-6-6-6-6-6-6-6-6-6-6-6-6-6-6-6-6-6-6-6-6-|
d-6-6-6-6-6-6-7-7-7-7-7-7-6-6-6-6-6-6-7-7-7-7-7-7-|
a-4-4-4-4-4-4-7-7-7-7-7-7-4-4-4-4-4-4-7-7-7-7-7-7-|
e-------------5-5-5-5-5-5-------------5-5-5-5-5-5-|

e-------------------------------------------------|
b-------------4-4-4-4-4-4-5-5-5-5-5-5-------------|
g-1-1-1-1-1-1-4-4-4-4-4-4-6-6-6-6-6-6-6-6-6-6-6-6-|
d-2-2-2-2-2-2-4-4-4-4-4-4-6-6-6-6-6-6-7-7-7-7-7-7-|
a-2-2-2-2-2-2-2-2-2-2-2-2-4-4-4-4-4-4-7-7-7-7-7-7-|
e-0-0-0-0-0-0-------------------------5-5-5-5-5-5-|

Guitar 1
2:42-3:03
e------------|
b------------|
g------------|
d-2~-----2~--|
a-2~-----2~--|
e-0~-----0~--|

3:05-3:42 (you can either ring it out or strum a rhythm)
e---------------------------------|
b-----------------5~------4~------|
g-1~------1~------6~------4~------| repeat
d-2~------2~------6~------4~------|  till
a-2~------2~------4~------2~------|  end
e-0~------0~----------------------|

Guitar 2
3:05-3:52
e-------------------------------------------------9-7-9--9-7-9--7-|
b-----------------------------------------------------------------|
g-9-8-9--9-8-9-8-9-8-9-9--9-8-9--9-8-9-8-9-8-9-9------------------|
d-----------------------------------------------------------------|
a-----------------------------------------------------------------|
e-----------------------------------------------------------------|

e-----------------------|
b-12-11-12--12-11-12--9-|
g-----------------------| repeat
d-----------------------|  till
a-----------------------|  end
e-----------------------|
Tap to rate this tab
 
# A B C D E F G H I J K L M N O P Q R S T U V W X Y Z