Song name
# A B C D E F G H I J K L M N O P Q R S T U V W X Y Z

Linkin Park - Victimized tab

 Tab by fanlp47

 Guitarra 1 y 2:  C# G# C# F# A# D#

 Watch my cover: http://www.youtube.com/watch?v=IsqPe2OdWW4

 Guitarra 1

 Intro/outro

 1----------------------------------|
 2----------------------------------|
 3----------------------------------|
 4-1-1-1-1-1--1-1-1--1-1-1-1-1-1----|
 5-1-1-1-1-1--1-1-1--1-1-1-1-1-1----|
 6-1-1-1-1-1--1-1-1--1-1-1-1-1-1----|

 1----------------------------------|
 2----------------------------------|
 3----------------------------------|
 4-1-1-1-1-1--1-1-1--1-1-2-2-2-2----|
 5-1-1-1-1-1--1-1-1--1-1-2-2-2-2----|
 6-1-1-1-1-1--1-1-1--1-1-2-2-2-2----|

 Chorus *4

 1----------------------------------|
 2----------------------------------|
 3----------------------------------|
 4-1-1-1-1-1--1-1-1--1-1-1-1-1-1----|
 5-1-1-1-1-1--1-1-1--1-1-1-1-1-1----|
 6-1-1-1-1-1--1-1-1--1-1-1-1-1-1----|


 Break *4

 1--------------------------------|
 2--------------------------------|
 3--------------------------------|
 4-1-1-1-1-2-1-1-2-1-1-2-2-2-2----|
 5-1-1-1-1-2-1-1-2-1-1-2-2-2-2----|
 6-1-1-1-1-2-1-1-2-1-1-2-2-2-2----|



 Guitarra 2

 Intro (Bis)

 1---------------------------------------|
 2---------------------------------------|
 3-------------15-------15----------15---|
 4-13-13-13-13----13-13-----13--13-------|
 5---------------------------------------|
 6---------------------------------------|


 1---------------------------------------------|
 2---------------------------------------------|
 3-------------15-------15------20-20-20-20----|
 4-13-13-13-13----13-13-----13-----------------|
 5---------------------------------------------|
 6---------------------------------------------|

 Mike Second Verse


 1-------------------------------------------|
 2-------------------------------------------|
 3-------------------------------------------|
 4-1----------1----1-1--2--1----1-1--2--1----|
 5-1----------1----1-1--2--1----1-1--2--1----|
 6-1----------1----1-1--2--1----1-1--2--1----|

 1---------------------------------------------------------------|
 2---------------------------------------------------------------|
 3---------------------------------------------------------------|
 4-1-1--4--1----1-1--4--1----1-1--2--1----1-1--2--1----1-1--4--1-|
 5-1-1--4--1----1-1--4--1----1-1--2--1----1-1--2--1----1-1--4--1-|
 6-1-1--4--1----1-1--4--1----1-1--2--1----1-1--2--1----1-1--4--1-|

 Outro

 1---------------------------------------------|
 2---------------------------------------------|
 3-------------15-------15------20-20-20-20----|
 4-13-13-13-13----13-13-----13-----------------|
 5---------------------------------------------|
 6---------------------------------------------|

 1---------------------------------------|
 2---------------------------------------|
 3-------------15-------15----------15---|
 4-13-13-13-13----13-13-----13--13-------|
 5---------------------------------------|
 6---------------------------------------|

 1---------------------------------------------|
 2---------------------------------------------|
 3-------------15-------15------20-20-20-20----|
 4-13-13-13-13----13-13-----13-----------------|
 5---------------------------------------------|
 6---------------------------------------------|
Tap to rate this tab
# A B C D E F G H I J K L M N O P Q R S T U V W X Y Z