Song name
# A B C D E F G H I J K L M N O P Q R S T U V W X Y Z

Linkin Park - Points Of Authority tab

this is a great song.I think it is accurate, so try it out.
Tuning - Drop Db

intro(x2)/verse(x1)
|-------------------------------------------| 
|-------------------------------------------|         
|-------------------------------------------|         
|-------------------------------------------|          
|-------------------------------------------|         
|--2-2-x-x--x--2-2-2/3-2-2-2-x-x-2-2--0--3--| 

intro(x2)/verse(x3) cont.
|-------------------------------------------|
|-------------------------------------------|
|-------------------------------------------|
|--2-2-x-x--x--2-2-2/3-2-2-2-x-x-2-2--0--3--|
|--2-2-x-x--x--2-2-2/3-2-2-2-x-x-2-2--0--3--|
|--2-2-x-x--x--2-2-2/3-2-2-2-x-x-2-2--0--3--|

Chorus(x4)
|--4-------5--|     
|--4-------5--|
|--4-------5--|
|--2-------3--|
|--2-------3--|
|--2-------3--|
hold.......

last chorus
|--4------------5-----4-------5--|
|--4------------5-----4-------5--|
|--4------------5-----4-------3--|
|--2------------3-----2-------3--|
|--2------------3-----2-------3--|
|--2------------3-----2-------3--|
hold............       .......

intro
verse
chorus
verse
chorus
intro
chorus

I think this is right, so try it out if you don't like it too bad.
Any questions,comments,complaints,confessions e-mail me at Pickslide316@aol.com
        

Enjoy!
Tap to rate this tab
 
# A B C D E F G H I J K L M N O P Q R S T U V W X Y Z