Song name
# A B C D E F G H I J K L M N O P Q R S T U V W X Y Z

Linkin Park - No More Sorrow tab

Artist-Linkin Park
Song-No More Sorrow
Album-Minutes To Midnight(2007)
Warner Music

Remember to rate and comment!!!

BRAD-Guitar I - Drop D
MIKE-Guitar II- Drop D

 Guitar I- Intro
|----------------|----------------|----------------|
|--5--------7--8-|---12----10-----|---12--13----12-|
|----------------|----------------|----------------| X2
|----------------|----------------|----------------|
|----------------|----------------|----------------|
|----------------|----------------|----------------|


Then Mike (Guitar II) comes in

 Guitar I
|----------------|----------------|----------------|
|--5--------7--8-|---12----10-----|---12--13----12-|
|----------------|----------------|----------------| X2
|----------------|----------------|----------------|
|----------------|----------------|----------------|
|----------------|----------------|----------------|
|
|Guitar II
|----------------|----------------|----------------|
|----------------|----------------|----------------|
|----------------|----------------|----------------| X2
|----------------|----------------|----------------|
|--4444444-------|---------4444444|----------------|
|--2222222-------|---------2222222|----------------|



 Guitar I
|----------------|----------------|----------------|
|--5--------7--8-|---12----10-----|---12--13----12-|
|----------------|----------------|----------------| X2
|----------------|----------------|----------------|
|----------------|----------------|----------------|
|----------------|----------------|----------------|
|
|Guitar II 
|----------------|----------------|----------------|----|
|----------------|----------------|----------------|----|
|----------------|----------------|----------------|----| X2
|----------------|----------------|----------------|----|
|--4444444--4444-|-44444444-444444|4--4444--4444444|4---|
|--2222222--2222-|-22222222-222222|2--2222--2222222|2---|
            ****   ********           ****  ******* * 



Chorus- Both guitars
|----------------|----------------|----------------|
|----------------|----------------|----------------|
|----------------|----------------|----------------| X3
|----------------|----------------|----------------|
|1212121212121111|11111111-4-4-4-4|-4-4-4-4-4-4-4-4|
|101010101010-9-9|-9-9-9-9-2-2-2-2|-2-2-2-2-2-2-2-2|

|----------------|----------------|----------------|
|----------------|----------------|----------------|
|----------------|----------------|----------------|
|----------------|----------------|----------------|
|-5-5-5-5-5-5-5-5|-5-5-5-5-9-9-9-9|-9-9-3-3-3-3-3-3|
|-3-3-3-3-3-3-3-3|-3-3-3-3-7-7-7-7|-7-7-1-1-1-1-1-1|


 PRE-VERSE
Both gitars
|----------------|----------------|----------------|----|
|----------------|----------------|----------------|----|
|----------------|----------------|----------------|----| X2
|----------------|----------------|----------------|----|
|--4444444--4444-|-44444444-444444|4--4444--4444444|4---|
|--2222222--2222-|-22222222-222222|2--2222--2222222|2---|


 
VERSE I 
Guitar I
|----------------|----------------|----------------|
|--5--------7--8-|---12----10-----|---12--13----12-|
|----------------|----------------|----------------| X2
|----------------|----------------|----------------|
|----------------|----------------|----------------|
|----------------|----------------|----------------|
|
|Guitar II 
|----------------|----------------|----------------|----|
|----------------|----------------|----------------|----|
|----------------|----------------|----------------|----| X2
|----------------|----------------|----------------|----|
|--4444444--4444-|-44444444-444444|4--4444--4444444|4---|
|--2222222--2222-|-22222222-222222|2--2222--2222222|2---|


 PRE-CHORUS
|----------------|----------------|----------------|----|
|----------------|----------------|----------------|----|
|----------------|----------------|----------------|----| X2
|----------------|----------------|----------------|----|
|--4444444--4444-|-44444444-444444|4--4444--4444444|4---|
|--2222222--2222-|-22222222-222222|2--2222--2222222|2---|



Chorus- Both guitars
|----------------|----------------|----------------|
|----------------|----------------|----------------|
|----------------|----------------|----------------| X3
|----------------|----------------|----------------|
|1212121212121111|11111111-4-4-4-4|-4-4-4-4-4-4-4-4|
|101010101010-9-9|-9-9-9-9-2-2-2-2|-2-2-2-2-2-2-2-2|

|----------------|----------------|----------------|
|----------------|----------------|----------------|
|----------------|----------------|----------------|
|----------------|----------------|----------------|
|-5-5-5-5-5-5-5-5|-5-5-5-5-9-9-9-9|-9-9-3-3-3-3-3-3|
|-3-3-3-3-3-3-3-3|-3-3-3-3-7-7-7-7|-7-7-1-1-1-1-1-1|


PRE-VERSE
Both guitars
|----------------|----------------|----------------|----|
|----------------|----------------|----------------|----|
|----------------|----------------|----------------|----| X2
|----------------|----------------|----------------|----|
|--4444444--4444-|-44444444-444444|4--4444--4444444|4---|
|--2222222--2222-|-22222222-222222|2--2222--2222222|2---|


VERSE II 
Guitar I
|----------------|----------------|----------------|
|--5--------7--8-|---12----10-----|---12--13----12-|
|----------------|----------------|----------------| X2
|----------------|----------------|----------------|
|----------------|----------------|----------------|
|----------------|----------------|----------------|
|
|Guitar II 
|----------------|----------------|----------------|----|
|----------------|----------------|----------------|----|
|----------------|----------------|----------------|----| X2
|----------------|----------------|----------------|----|
|--4444444--4444-|-44444444-444444|4--4444--4444444|4---|
|--2222222--2222-|-22222222-222222|2--2222--2222222|2---|


 PRE-CHORUS
|----------------|----------------|----------------|----|
|----------------|----------------|----------------|----|
|----------------|----------------|----------------|----| X2
|----------------|----------------|----------------|----|
|--4444444--4444-|-44444444-444444|4--4444--4444444|4---|
|--2222222--2222-|-22222222-222222|2--2222--2222222|2---|



Chorus- Both guitars
|----------------|----------------|----------------|
|----------------|----------------|----------------|
|----------------|----------------|----------------| X3
|----------------|----------------|----------------|
|1212121212121111|11111111-4-4-4-4|-4-4-4-4-4-4-4-4|
|101010101010-9-9|-9-9-9-9-2-2-2-2|-2-2-2-2-2-2-2-2|

|----------------|----------------|----------------|
|----------------|----------------|----------------|
|----------------|----------------|----------------|
|----------------|----------------|----------------|
|-5-5-5-5-5-5-5-5|-5-5-5-5-9-9-9-9|-9-9-3-3-3-3-3-3|
|-3-3-3-3-3-3-3-3|-3-3-3-3-7-7-7-7|-7-7-1-1-1-1-1-1|


BRIDGE
Both guitars
|----------------|----------------|
|----------------|----------------|
|----------------|----------------| X5
|0--3--0--6--5--3|--5--8----------|
|0--3--0--6--5--3|--5--8----------|
|0--3--0--6--5--3|--5--8----------|



VERSE III 
Guitar I
|----------------|----------------|----------------|
|--5--------7--8-|---12----10-----|---12--13----12-|
|----------------|----------------|----------------| X3
|----------------|----------------|----------------|
|----------------|----------------|----------------|
|----------------|----------------|----------------|
|
|Guitar II 
|----------------|----------------|----------------|----|
|----------------|----------------|----------------|----|
|----------------|----------------|----------------|----| X3
|----------------|----------------|----------------|----|
|--4444444--4444-|-44444444-444444|4--4444--4444444|4---|
|--2222222--2222-|-22222222-222222|2--2222--2222222|2---|


Chorus- Both guitars
|----------------|----------------|----------------|
|----------------|----------------|----------------|
|----------------|----------------|----------------| X3
|----------------|----------------|----------------|
|1212121212121111|11111111-4-4-4-4|-4-4-4-4-4-4-4-4|
|101010101010-9-9|-9-9-9-9-2-2-2-2|-2-2-2-2-2-2-2-2|

|----------------|----------------|----------------|
|----------------|----------------|----------------|
|----------------|----------------|----------------|
|----------------|----------------|----------------|
|-5-5-5-5-5-5-5-5|-5-5-5-5-9-9-9-9|-9-9-3-3-3-3-3-3|
|-3-3-3-3-3-3-3-3|-3-3-3-3-7-7-7-7|-7-7-1-1-1-1-1-1|


Chorus again with Brad doing verse backround
Guitar I
|----------------|----------------|----------------|
|--5--------7--8-|---12----10-----|---12--13----12-|
|----------------|----------------|----------------| X2
|----------------|----------------|----------------|
|----------------|----------------|----------------|
|----------------|----------------|----------------|
|
|Guitar II
|----------------|----------------|----------------|
|----------------|----------------|----------------|
|----------------|----------------|----------------| X3
|----------------|----------------|----------------|
|1212121212121111|11111111-4-4-4-4|-4-4-4-4-4-4-4-4|
|101010101010-9-9|-9-9-9-9-2-2-2-2|-2-2-2-2-2-2-2-2|

|----------------|----------------|----------------|
|----------------|----------------|----------------|
|----------------|----------------|----------------|
|----------------|----------------|----------------|
|-5-5-5-5-5-5-5-5|-5-5-5-5-9-9-9-9|-9-9-3-3-3-3-3-3|
|-3-3-3-3-3-3-3-3|-3-3-3-3-7-7-7-7|-7-7-1-1-1-1-1-1|


Outro
Guitar I
|----------------|----------------|----------------|
|--5--------7--8-|---12----10-----|---12--13----12-|
|----------------|----------------|----------------| X1
|----------------|----------------|----------------|
|----------------|----------------|----------------|
|----------------|----------------|----------------|
|
|Guitar II 
|----------------|----------------|----------------|----|
|----------------|----------------|----------------|----|
|----------------|----------------|----------------|----| X1
|----------------|----------------|----------------|----|
|--4444444--4444-|-44444444-444444|4--4444--4444444|4---|
|--2222222--2222-|-22222222-222222|2--2222--2222222|2---|
Tap to rate this tab
# A B C D E F G H I J K L M N O P Q R S T U V W X Y Z