Song name
# A B C D E F G H I J K L M N O P Q R S T U V W X Y Z

Linkin Park - The Morning After tab

ok... this is my first tab so please dont hate me if i aint totally right...
ny comments and that send them to scaryotter13@hotmail.com... this band are
great and this is a proper decent song from the great chester bennington... enjoy...

x = Palm Muted Note

Intro
---------------------------------
-3-x-3-3-x-3-3-x-1-4-4-----------
-4-x-4-4-x-4-4-x-2-5-5-----------
-5-x-5-5-x-5-5-x-3-6-6-----------
-5-x-5-5-x-5-5-x-3-6-6-----------
-3-x-3-3-x-3-3-x-1-4-4-----------

Verse
---------------------------------
-3-x-3-3-x-3-3-x-1-4-4-----------
-4-x-4-4-x-4-4-x-2-5-5-----------
-5-x-5-5-x-5-5-x-3-6-6-----------
-5-x-5-5-x-5-5-x-3-6-6-----------
-3-x-3-3-x-3-3-x-1-4-4-----------

Chorus
-----------------------------------------------------
-5-x-5-5-x-4-x-4-4-x-3-x-3-3-x-3-3-x-1-x-4-4-1-------
-6-x-6-6-x-5-x-5-5-x-4-x-4-4-x-4-4-x-2-x-5-5-2-------
-7-x-7-7-x-6-x-6-6-x-5-x-5-5-x-5-5-x-3-x-6-6-3-------
-7-x-7-7-x-6-x-6-6-x-5-x-5-5-x-5-5-x-3-x-6-6-3-------
-5-x-5-5-x-4-x-4-4-x-3-x-3-3-x-3-3-x-1-x-4-4-1-------

i aint worked out the bridge yet but ill put it on wen i do...
and thats it... hope ya enjoy playin it ;)
Tap to rate this tab
# A B C D E F G H I J K L M N O P Q R S T U V W X Y Z