Song name
# A B C D E F G H I J K L M N O P Q R S T U V W X Y Z

Linkin Park - Crawling tab

-------------------------------------------------------------------------------
			     LINKIN PARK - CRAWLING
-------------------------------------------------------------------------------
Tabbed by: Logan_B
Email: saleen4me_27@hotmail.com

Tuning: 


INTRO: (DJ switched to Guitar)
e|--12-9*-------------12-9~--------------12*-9-------------12~-9-----------|
B|9------12-8-9-8--9-------12-8-9-8--9--------12-8-9-8---9------12-8-9-8*--|
G|-------------------------------------------------------------------------|
D|-------------------------------------------------------------------------|
A|-------------------------------------------------------------------------|
E|-------------------------------------------------------------------------|

Chorus Intro:  (Power Chords) x2
e|-------------------------------------------------------------------------|
B|-------------------------------------------------------------------------|
G|-------------------------------------------------------------------------|
D|--------5*----------7--7-------------------------------------------------|
A|--2*----3*----5*----5--5--2----------------------------------------------|
E|--0*----------3*----------0----------------------------------------------|

  Repeat Last Half Of Intro
  Chorus x2
  Pause
  Chorus x4

Outro:
e|-------------------------------------------------------------------------|
B|-------------------------------------------------------------------------|
G|-------------------------------------------------------------------------|
D|--------5*----------7-7-7-7----------------------------------------------|
A|--2*----3*----5*----5-5-5-5----------------------------------------------|
E|--0*----------3*---------------------------------------------------------|

*Pause
Tap to rate this tab
# A B C D E F G H I J K L M N O P Q R S T U V W X Y Z