Song name
# A B C D E F G H I J K L M N O P Q R S T U V W X Y Z

Linkin Park - Stick N Move tab

first of all i must tell u that stick n move is NOT! from Fort Minor it's from Linkin Park
when they were called Xero

Tabbed by: zoastev (zoastev@yahoo.com)

Tunning: C# G# C# F# A# D#

Verse (background noises):
|-------------9---------------7-------------|
|--------6--9------------4--7---------------|
|--6~-9------------4~-6---------------------|
|-------------------------------------------|
|-------------------------------------------|
|-------------------------------------------|


Chorus:
|----------------------------------------|
|----------------------------------------|
|--6-6--9-99-----------------------------|
|--6-6--9-99--7-7--9-99--6---------------|
|--4-4--7-77--7-7--9-99--6---------------|
|-------------7-7--9-99--6---------------|

Bridge (x3):
|----------------------------|            |------------------------------|
|----------------------------|            |------------------------------|
|---4/66-6-66666-------------| <--- Clean |------4-555-------------------|x2
|---4/66-6-66666-------------| x2  then   |--333-4-555-3h44--------------|
|-0h2/44-4-44444-------------|            |--333-2-333-3h44--------------|
|----------------------------|            |--333-------3h44--------------|
                                                 ^
                       at 3rd repeat play this part 4 times instead of 2


Order
Intro (chorus chords x6) [6th time is clean]
Verse x4
Chorus x4
Verse x4 (after 4th time pause until chorus)
Chorus x4
Bridge
Ending (Chorus chords x4)
Tap to rate this tab
 
# A B C D E F G H I J K L M N O P Q R S T U V W X Y Z