Song name
# A B C D E F G H I J K L M N O P Q R S T U V W X Y Z

Linkin Park - Cure For The Itch tab

(Unnamed announcer): Folks, we have a very special guest for you tonight.
I'd like to introduce...
Mr. Hahn!Riff 1A (Cello? for Guitar 1)

eb--------------------------------------------------------
Bb--------------------------------------------------------
Gb--------------------------------------------------------
Db--6---9---13---11----6---9---13---11--------------------
Ab--6---9---13---11----6---9---13---11--------------------
Db--6---9---13---11----6---9---13---11--------------------

Riff 1B (Piano for Guitar 2)
eb--16-16-16--14-14-14--11-11-11--------------------------
Bb--16-16-16--12-12-12---9--9--9--12----------------------
Gb--------------------------------11--13------------------
Db------------------------------------11------------------
Ab--------------------------------------------------------
Db--------------------------------------------------------

Riff 1C (Synth? for Guitar 3)
eb--11-----------11------14-------------------------------
Bb------12-----------12-----------------------------------
Gb----------13--------------------------------------------
Db--------------------------------------------------------
Ab--------------------------------------------------------
Db--------------------------------------------------------

Riff 2A (Cello? for Guitar 1)
eb--------------------------------------------------------
Bb--------------------------------------------------------
Gb--7---11---12--------7---11---12------------------------
Db--7---11---12---4----7---11---12---4--------------------
Ab--5----9---10---4----5----9---10---4--------------------
Db----------------4------------------4--------------------

Riff 2B (Synth? for Guitar 2 or 3)
eb--12---14-------16---14---12----------------------------
Bb-----------12-------------------------------------------
Gb--------------------------------------------------------
Db--------------------------------------------------------
Ab--------------------------------------------------------
Db--------------------------------------------------------

Riff 1A
Riff 1A, 1B
Riff 1A, 1C
Riff 1A, 1B, 1C
Riff 2A, 2B
Riff 1A, 1C
Riff 1A, 1B, 1C
Riff 2A, 2B
Riff 1A, 1C
Tap to rate this tab
# A B C D E F G H I J K L M N O P Q R S T U V W X Y Z