Song name
# A B C D E F G H I J K L M N O P Q R S T U V W X Y Z

Linkin Park - Given Up tab

Band: Linkin Park
Song: Given Up
Album:  Minutes to Midnight
Transcribed by:  Jeff Martin
Tuning:  Drop D (DAGDBE)

As requested...

Intro Pt. 1 (Dist. w/guitar Volume <5)
16 beats, then Guitar Enters

|-------------------------------------------------------|
|-------------------------------------------------------|
|-------------------------------------------------------|
|-------------------------------------------------------|
|-2-////////-3-2-////////-3-2-////////-3-2-/////-8-//-7-|
|-2-////////-3-2-////////-3-2-////////-3-2-/////-8-//-7-|

Intro Pt. 2 (Dist. w/Guitar Volume on 10)
|-------------------------------------------------------|
|-------------------------------------------------------|
|-------------------------------------------------------|
|-------------------------------------------------------|
|-2-////////-3-2-////////-3-2-////////-3-2-/////-8-//-7-|
|-2-////////-3-2-////////-3-2-////////-3-2-/////-8-//-7-|

Verse 1:  Just pick scrape

Chorus 1:
(I will put the Tab close to show rhythm)

|---------------------:||
|---------------------:||
|---------------------:||
|-2222-5555-0000-7777-:||
|-2222-5555-0000-7777-:||
|-2222-5555-0000-7777-:||X3 >>>

>>>
|-------------------------------------|
|-------------------------------------|
|-------------------------------------|
|-2222-5555-0000-7777-7777-///-8-//-7-|
|-2222-5555-0000-7777-7777-///-8-//-7-|
|-2222-5555-0000-7777-7777-///-8-//-7-|

Verse 2:  Pick Scrape

Chorus 2: (Same as Chorus 1, enter with pick scrapes)

Bridge:

1:55 (Guitar Volume <5)
|---------|-------|-------|---------|-10----|
|---------|-------|-------|---------|-12b15-|
|---------|-------|-------|---------|-------|
|---------|-------|-------|---------|-------|
|---------|-------|-------|---------|-------|
|-0-1-2-0-|-4-3-0-|-6-5-0-|-1-2-0-1-|-------|

|---------|-------|-------|---------|
|---------|-------|-------|---------|
|---------|-------|-------|---------|
|-0-1-2-0-|-4-3-0-|-6-5-0-|-1-2-0-1-|
|-0-1-2-0-|-4-3-0-|-6-5-0-|-1-2-0-1-|
|-0-1-2-0-|-4-3-0-|-6-5-0-|-1-2-0-1-| Pause


|---------|-------|-------|-------------|
|---------|-------|-------|-------------|
|---------|-------|-------|-------------|
|-0-1-2-0-|-4-3-0-|-6-5-0-|-1-2-0-3-2-0-|
|-0-1-2-0-|-4-3-0-|-6-5-0-|-1-2-0-3-2-0-|
|-0-1-2-0-|-4-3-0-|-6-5-0-|-1-2-0-3-2-0-| 

|---------|-------|-------|---------|
|---------|-------|-------|---------|
|---------|-------|-------|---------|
|-0-1-2-0-|-4-3-0-|-6-5-0-|-1-2-0-1-|
|-0-1-2-0-|-4-3-0-|-6-5-0-|-1-2-0-1-|
|-0-1-2-0-|-4-3-0-|-6-5-0-|-1-2-0-1-| Pause


|---------|-------|-------|-------------|
|---------|-------|-------|-------------|
|---------|-------|-------|-------------|
|-0-1-2-0-|-4-3-0-|-6-5-0-|-1-2-0-3-2-0-|
|-0-1-2-0-|-4-3-0-|-6-5-0-|-1-2-0-3-2-0-|
|-0-1-2-0-|-4-3-0-|-6-5-0-|-1-2-0-3-2-0-| 

(may need corrections here)
|---------|-------|-------|-------|---------|---------|---------|
|---------|-------|-------|-------|---------|---------|---------|
|---------|-------|-------|-------|---------|---------|---------|
|-0-1-2-0-|-4-3-0-|-6-5-0-|-1-2-0-|-1-2-3-0-|-2-3-5-0-|-0-2-3-1-|
|-0-1-2-0-|-4-3-0-|-6-5-0-|-1-2-0-|-1-2-3-0-|-2-3-5-0-|-0-2-3-1-|
|-0-1-2-0-|-4-3-0-|-6-5-0-|-1-2-0-|-1-2-3-0-|-2-3-5-0-|-0-2-3-1-|

Intro Pt. 2 X2
Chorus>>>>>>>>>

There it is.  Please offer any and all corrections!  THX
Tap to rate this tab
# A B C D E F G H I J K L M N O P Q R S T U V W X Y Z