Song name
# A B C D E F G H I J K L M N O P Q R S T U V W X Y Z

Linkin Park - Announcement Service Public tab

Tabbed by: Forrow
Email: forrowed@hotmail.co.uk

Tuning: Drop D (D A D G B e)

Listen to the song to get the rhythms exactly right ;)

e||----------------||
B||----------------||
G||--11------11--11||
D||9----9--9----9--|| x32
A||----------------||
D||----------------||

e||-------||-------||-------||------||-------||-------||
B||-------||-------||7------||------||7------||-------||
G||11-----||9------||7------||9-----||6------||9------||
D||9-(x32)||7-(x32)||5-(x28)||7-(x4)||4-(x16)||7-(x16)|| x3
A||9------||7------||5------||7-----||4------||7------||
D||9------||7------||5------||7-----||4------||7------||

e||----------------||
B||----------------||
G||--11------11--11||
D||9----9--9----9--|| x7
A||----------------||
D||----------------||

e||-----------------||
B||-----------------||
G||--11------11--11-||
D||9----9--9----9--9||
A||-----------------||
D||-----------------|| end
Tap to rate this tab
 
# A B C D E F G H I J K L M N O P Q R S T U V W X Y Z