Guitaretab - guitar tabs
Song name
# A B C D E F G H I J K L M N O P Q R S T U V W X Y Z

Linkin Park - Figure 09 tab

-------------------------------------------------------------------------------
			     Linkin Park - Figure.09
-------------------------------------------------------------------------------

Tabbed by: Lp_Player92
Email: LP_Player92@gmx.net

Tuning(low to high): Db Ab Db - Db -

This tab is the right key to play this song correct. I made it because so many people
the intro tapping wrong. Brad removes the 1st and the 3rd string because he doesn`t need
in this song and you can also play the tapping part better without this 2 strings. 2nd 
is tuned the same as the 6th.

I also have a video on Youtube where i play this song:
http://www.youtube.com/watch?v=CSro843Uj5M

Key to the tab:

  ()= tapped harmonic: for example 0(12)
    h = hammer on
    t = tapping
    * = natural harmonic

If you tap the 0 fret you have to tap somewhere that it don`t get a harmonic(for example
the 24th fret).


Intro Tapping
|----------------------------------------------------------------------------------------|
|-0(12)--0--3(15)---0(12)--0--3(15)---0(12)--0--3(15)---0(12)h1-0(12)h1-1(13)---0(12)h1--|
|----------------------------------------------------------------------------------------|
|----------------------------------------------------------------------------------------|
|----------------------------------------------------------------------------------------|
|----------------------------------------------------------------------------------------|

|-----------------------------------------------------------------------|
|-0(12)--0--3(15)---0(12)--0--3(15)---0(12)--0--3(15)-------------------|
|-----------------------------------------------------------------------|
|-----------------------------------------------------------------------|
|-----------------------------------------------------------------------|
|-----------------------------------------------------------------------|


|-----------------|
|-----------------|
|-----------------|
|--0-1-1-1-1--0h1-|
|--0-1-1-1-1--0h1-|
|--0-1-1-1-1--0h1-|

Heavy Intro
|-------------------------------------------------------------------------------------------------|
|-------------------------------------------------------------------------------------------------|
|-------------------------------------------------------------------------------------------------|
|-0------5---0------5---0------5---0-1-1-1-1--0h1-0------5---0------5---0------5---0-1-1-1-1--0h1-|
|-0------3---0------3---0------3---0-1-1-1-1--0h1-0------3---0------3---0------3---0-1-1-1-1--0h1-|
|-0--5*--3---0--5*--3---0--5*--3---0-1-1-1-1--0h1-0--5*--3---0--5*--3---0--5*--3---0-1-1-1-1--0h1-|

First Verse
|-------------------------------------------------------------------------------------------------|
|-------------------------------------------------------------------------------------------------|
|-------------------------------------------------------------------------------------------------|
|-0---------0----------0-----------0-1-1-1-1--0h1-0---------0----------0-----------0-1-1-1-1--0h1-|
|-0---------0----------0-----------0-1-1-1-1--0h1-0---------0----------0-----------0-1-1-1-1--0h1-|
|-0--5*-----0---5*-----0---5*------0-1-1-1-1--0h1-0--5*-----0---5*-----0---5*------0-1-1-1-1--0h1-|

|-------------------------------------------------------------------------------------------------|
|-------------------------------------------------------------------------------------------------|
|-------------------------------------------------------------------------------------------------|
|-0------5---0------5---0------5---0-1-1-1-1--0h1-0------5---0------5---0------5---0-1-1-1-1--0h1-|
|-0------3---0------3---0------3---0-1-1-1-1--0h1-0------3---0------3---0------3---0-1-1-1-1--0h1-|
|-0--5*--3---0--5*--3---0--5*--3---0-1-1-1-1--0h1-0--5*--3---0--5*--3---0--5*--3---0-1-1-1-1--0h1-|

Pre-Chorus (with flanger)
|------------------------------------------|
|------------------------------------------|
|------------------------------------------|
|-0----8---0---0--8---0---0--8---0---------|
|-0----8---0---0--8---0---0--8---0---------|
|-0----8---0---0--8---0---0--8---0---------|

Chorus
|---------------------------------------------------------|
|---------------------------------------------------------|
|---------------------------------------------------------|
|-0-0-0-0-0--0--8-8-8-8-10--0--3-3-3-3-3----5-5--5-7-7--7-|
|-0-0-0-0-0--0--8-8-8-8-8---0--3-3-3-3-3----5-5--5-7-7--7-|
|-0-0-0-0-0--0--8-8-8-8-8---0--3-3-3-3-3----5-5--5-7-7--7-|

|---------------------------------------------------------|
|---------------------------------------------------------|
|---------------------------------------------------------|
|-0-0-0-0-0--0--8-8-8-8-10--0--3-3-3-3-3----5-5--5-7-7--7-|
|-0-0-0-0-0--0--8-8-8-8-8---0--3-3-3-3-3----5-5--5-7-7--7-|
|-0-0-0-0-0--0--8-8-8-8-8---0--3-3-3-3-3----5-5--5-7-7--7-|

|---------------------------------------------------------|
|---------------------------------------------------------|
|---------------------------------------------------------|
|-0-0-0-0-0--0--8-8-8-8-10--0--3-3-3-3-3----5-5--5-7-7--7-|
|-0-0-0-0-0--0--8-8-8-8-8---0--3-3-3-3-3----5-5--5-7-7--7-|
|-0-0-0-0-0--0--8-8-8-8-8---0--3-3-3-3-3----5-5--5-7-7--7-|

|--------------------------------------------------------|
|--------------------------------------------------------|
|--------------------------------------------------------|
|-0-0-0-0-0--0--8-8-8-8-10--0--3-3-3-3-3----7-7---1-1--1-|
|-0-0-0-0-0--0--8-8-8-8-8---0--3-3-3-3-3----7-7---1-1--1-|
|-0-0-0-0-0--0--8-8-8-8-8---0--3-3-3-3-3----7-7---1-1--1-|

Post-Chorus
|----------------------------------------------------|
|----------------------------------------------------|
|----------------------------------------------------|
|-0------5---0-------5---0-------5----0-1-1-1-1--0h1-|
|-0------3---0-------3---0-------3----0-1-1-1-1--0h1-|
|-0--5*--3---0---5*--3---0---5*--3----0-1-1-1-1--0h1-|

2nd Verse
|-------------------------------------------------------------------------------------------------|
|-------------------------------------------------------------------------------------------------|
|-------------------------------------------------------------------------------------------------|
|-0---------0----------0-----------0-1-1-1-1--0h1-0---------0----------0-----------0-1-1-1-1--0h1-|
|-0---------0----------0-----------0-1-1-1-1--0h1-0---------0----------0-----------0-1-1-1-1--0h1-|
|-0--5*-----0---5*-----0---5*------0-1-1-1-1--0h1-0--5*-----0---5*-----0---5*------0-1-1-1-1--0h1-|

|-------------------------------------------------------------------------------------------------|
|-------------------------------------------------------------------------------------------------|
|-------------------------------------------------------------------------------------------------|
|-0------5---0------5---0------5---0-1-1-1-1--0h1-0------5---0------5---0------5---0-1-1-1-1--0h1-|
|-0------3---0------3---0------3---0-1-1-1-1--0h1-0------3---0------3---0------3---0-1-1-1-1--0h1-|
|-0--5*--3---0--5*--3---0--5*--3---0-1-1-1-1--0h1-0--5*--3---0--5*--3---0--5*--3---0-1-1-1-1--0h1-|
[ Tab from: http://www.guitaretab.com/l/linkin-park/33500.html ]
Pre-Chorus (with flanger)
|------------------------------------------|
|------------------------------------------|
|------------------------------------------|
|-0----8---0---0--8---0---0--8---0---------|
|-0----8---0---0--8---0---0--8---0---------|
|-0----8---0---0--8---0---0--8---0---------|

Chorus
|---------------------------------------------------------|
|---------------------------------------------------------|
|---------------------------------------------------------|
|-0-0-0-0-0--0--8-8-8-8-10--0--3-3-3-3-3----5-5--5-7-7--7-|
|-0-0-0-0-0--0--8-8-8-8-8---0--3-3-3-3-3----5-5--5-7-7--7-|
|-0-0-0-0-0--0--8-8-8-8-8---0--3-3-3-3-3----5-5--5-7-7--7-|

|---------------------------------------------------------|
|---------------------------------------------------------|
|---------------------------------------------------------|
|-0-0-0-0-0--0--8-8-8-8-10--0--3-3-3-3-3----5-5--5-7-7--7-|
|-0-0-0-0-0--0--8-8-8-8-8---0--3-3-3-3-3----5-5--5-7-7--7-|
|-0-0-0-0-0--0--8-8-8-8-8---0--3-3-3-3-3----5-5--5-7-7--7-|

|---------------------------------------------------------|
|---------------------------------------------------------|
|---------------------------------------------------------|
|-0-0-0-0-0--0--8-8-8-8-10--0--3-3-3-3-3----5-5--5-7-7--7-|
|-0-0-0-0-0--0--8-8-8-8-8---0--3-3-3-3-3----5-5--5-7-7--7-|
|-0-0-0-0-0--0--8-8-8-8-8---0--3-3-3-3-3----5-5--5-7-7--7-|

|------------------------------------------------------------------------------------|
|------------------------------------------------------------------------------------|
|------------------------------------------------------------------------------------|
|-0-0-0-0-0--0--8-8-8-8-10--0--3-3-3-3-3----7-7---1-1--1-1-1--1-1-1--1-1-1--1-1-1--1-|
|-0-0-0-0-0--0--8-8-8-8-8---0--3-3-3-3-3----7-7---1-1--1-1-1--1-1-1--1-1-1--1-1-1--1-|
|-0-0-0-0-0--0--8-8-8-8-8---0--3-3-3-3-3----7-7---1-1--1-1-1--1-1-1--1-1-1--1-1-1--1-|

Breakdown Tapping
|---------------------------------------------------------------------------------------|
|-0(12)--0--3(15)---0(12)--0--3(15)---0(12)--0--3(15)---0(12)h1-0(12)h1-1(13)--0(12)h1--|
|---------------------------------------------------------------------------------------|
|---------------------------------------------------------------------------------------|
|---------------------------------------------------------------------------------------|
|---------------------------------------------------------------------------------------|

|-----------------------------------------------------------------------|
|-0(12)--0--3(15)---0(12)--0--3(15)---0(12)--0--3(15)-------------------|
|-----------------------------------------------------------------------|
|-----------------------------------------------------------------------|
|-----------------------------------------------------------------------|
|-----------------------------------------------------------------------|


|-----------------|
|-----------------|
|-----------------|
|--0-1-1-1-1--0h1-|
|--0-1-1-1-1--0h1-|
|--0-1-1-1-1--0h1-|

Bridge
|-----------------------------------------------------|
|-----------------------------------------------------|
|-----------------------------------------------------|
|-1--0--x--x-x-0-1-3--------1--0--x--x-x-0-1-3--------|
|-1--0--x--x-x-0-1-3--------1--0--x--x-x-0-1-3--------|
|-1--0--x--x-x-0-1-3----4*--1--0--x--x-x-0-1-3----5*--|

|------------------------------------------------------|
|------------------------------------------------------|
|------------------------------------------------------|
|-1--0--x--x-x-0-1-3--------1--0--x--x-x-0-1-3--x-x--x-|
|-1--0--x--x-x-0-1-3--------1--0--x--x-x-0-1-3--x-x--x-|
|-1--0--x--x-x-0-1-3----4*--1--0--x--x-x-0-1-3--x-x--x-|


|-----------------------------------------------------|
|-----------------------------------------------------|
|-----------------------------------------------------|
|-1--0--x--x-x-0-1-3--------1--0--x--x-x-0-1-3--------|
|-1--0--x--x-x-0-1-3--------1--0--x--x-x-0-1-3--------|
|-1--0--x--x-x-0-1-3----4*--1--0--x--x-x-0-1-3----5*--|

|-------------------------------------------------------|
|-------------------------------------------------------|
|-------------------------------------------------------|
|-1--0--x--x-x-0-1-3--------1--0--x--x-x-0-1-3--x-x-x-x-|
|-1--0--x--x-x-0-1-3--------1--0--x--x-x-0-1-3--x-x-x-x-|
|-1--0--x--x-x-0-1-3----4*--1--0--x--x-x-0-1-3--x-x-x-x-|

Chorus
|---------------------------------------------------------|
|---------------------------------------------------------|
|---------------------------------------------------------|
|-0-0-0-0-0--0--8-8-8-8-10--0--3-3-3-3-3----5-5--5-7-7--7-|
|-0-0-0-0-0--0--8-8-8-8-8---0--3-3-3-3-3----5-5--5-7-7--7-|
|-0-0-0-0-0--0--8-8-8-8-8---0--3-3-3-3-3----5-5--5-7-7--7-|

|---------------------------------------------------------|
|---------------------------------------------------------|
|---------------------------------------------------------|
|-0-0-0-0-0--0--8-8-8-8-10--0--3-3-3-3-3----5-5--5-7-7--7-|
|-0-0-0-0-0--0--8-8-8-8-8---0--3-3-3-3-3----5-5--5-7-7--7-|
|-0-0-0-0-0--0--8-8-8-8-8---0--3-3-3-3-3----5-5--5-7-7--7-|

|---------------------------------------------------------|
|---------------------------------------------------------|
|---------------------------------------------------------|
|-0-0-0-0-0--0--8-8-8-8-10--0--3-3-3-3-3----5-5--5-7-7--7-|
|-0-0-0-0-0--0--8-8-8-8-8---0--3-3-3-3-3----5-5--5-7-7--7-|
|-0-0-0-0-0--0--8-8-8-8-8---0--3-3-3-3-3----5-5--5-7-7--7-|

|-----------------------------------------------------------|
|-----------------------------------------------------------|
|-----------------------------------------------------------|
|-0-0-0-0-0--0--8-8-8-8-10--0--3-3-3-3-3----7-7-7-7-7-7-7-7-|
|-0-0-0-0-0--0--8-8-8-8-8---0--3-3-3-3-3----7-7-7-7-7-7-7-7-|
|-0-0-0-0-0--0--8-8-8-8-8---0--3-3-3-3-3----7-7-7-7-7-7-7-7-|

Outro
|---------------------------------------------------------|
|---------------------------------------------------------|
|---------------------------------------------------------|
|-0-0-0-0-0--0--8-8-8-8-10--0--3-3-3-3-3----5-5--5-7-7--7-|
|-0-0-0-0-0--0--8-8-8-8-8---0--3-3-3-3-3----5-5--5-7-7--7-|
|-0-0-0-0-0--0--8-8-8-8-8---0--3-3-3-3-3----5-5--5-7-7--7-|

|---------------------------------------------------------|
|---------------------------------------------------------|
|---------------------------------------------------------|
|-0-0-0-0-0--0--8-8-8-8-10--0--3-3-3-3-3----5-5--5-7-7--7-|
|-0-0-0-0-0--0--8-8-8-8-8---0--3-3-3-3-3----5-5--5-7-7--7-|
|-0-0-0-0-0--0--8-8-8-8-8---0--3-3-3-3-3----5-5--5-7-7--7-|

|---------------------------------------------------------|
|---------------------------------------------------------|
|---------------------------------------------------------|
|-0-0-0-0-0--0--8-8-8-8-10--0--3-3-3-3-3----5-5--5-7-7--7-|
|-0-0-0-0-0--0--8-8-8-8-8---0--3-3-3-3-3----5-5--5-7-7--7-|
|-0-0-0-0-0--0--8-8-8-8-8---0--3-3-3-3-3----5-5--5-7-7--7-|

|-------------------------------------------------------------------------------------|
|-------------------------------------------------------------------------------------|
|-------------------------------------------------------------------------------------|
|-0-0-0-0-0--0--8-8-8-8-10--0--3-3-3-3-3----7-7---1-1--1-1-1--1-1-1--1-1-1--1-1-1-1-1-|
|-0-0-0-0-0--0--8-8-8-8-8---0--3-3-3-3-3----7-7---1-1--1-1-1--1-1-1--1-1-1--1-1-1-1-1-|
|-0-0-0-0-0--0--8-8-8-8-8---0--3-3-3-3-3----7-7---1-1--1-1-1--1-1-1--1-1-1--1-1-1-1-1-|
Related for Figure 09 tab
Advertisement will be closed in 10 seconds