Song name
# A B C D E F G H I J K L M N O P Q R S T U V W X Y Z

Lionel Richie - Easy tab

Help us improve GuitareTab! Take a short survey!
---------------------------------------------------------------
	    EASY - Lionel Richie/Faith No More
---------------------------------------------------------------
Tabbed by: me
Email: alex.pepper@virgin.net

Tuning: normal eadgbe

Solo (over chords Ab, C#m, Bbm, Ebm7)

e|-------------------------|--------------------------------|
B|-------------------------|--------------------------------|
G|--------------13~-(13)/--|--------------------------------|
D|-------------------------|--------------------------------|
A|-13b15b13-11-------------|--13b15b13-11-11~--(11)\--------|
E|-------------------------|--------------------------------|

e|-----------------------------------------|-----------------|
B|--------------16b18--13------------------|-----------------|
G|-------------------------13--------------|-----------------|
D|----------------------------16-15-13-----|-13h15p13--------|
A|-13b15b13-11--------------------------15-|-----------15-~--|
E|-----------------------------------------|-----------------|

e|-------------------------|--------------------------------|
B|-------------------------|--------------------------------|
G|--------------13~-(13)/--|--------------------------------|
D|-------------------------|--------------------------------|
A|-13b15b13-11-------------|--13b15b13-11-11~--(11)\--------|
E|-------------------------|--------------------------------|

e|--------------------------------------|--------------------|
B|--------------16b18-16-16b18--------16|--------------------|
G|------------------------------15b17---|-17b15p13-15p13-----|
D|--------------------------------------|----------------15--|
A|-13b15b13-11--------------------------|--------------------|
E|--------------------------------------|--------------------|

e|----------------------------------------------------------|
B|--------16b18-16~-----------------------------------------|
G|----------------------------------------------------------|
D|-15-13----------------------------------------------------|
A|----------------------------------------------------------|
E|----------------------------------------------------------|

| /  slide up
| \  slide down
| h  hammer-on
| p  pull-off
| ~  vibrato
| +  harmonic
| x  Mute note
Related for Easy tab