Guitaretab - guitar tabs
Song name
# A B C D E F G H I J K L M N O P Q R S T U V W X Y Z
Home / L / Lior / Daniel tab

Lior - Daniel tab

Highlighted       Show chord diagrams
Artist: Apologetix
Song:Daniel

Intro-
C   F   G   C

Verses-
C   F   G   Em   Am
F   G   Am
F   G   F   C

Chorus-
F   C   F   C
Am  F   Fm
C   Am  F   G
[ Tab from: http://www.guitaretab.com/l/lior/143309.html ]
Solo (keyboard transcribed for guitar)-
E|-----------------------------------------------------|
B|-5------------5--6-----6------------3---5h6--5-------|
G|----5------5--------7-----7-----4---------------7----|
D|--------5--------------------5-----------------------|

E|--------------------5--3---------------------------------------------------|
B|--------------------------5--8--5------5---3-----6--5-----------6--5--3--1-|
G|-9--7---5---5--4--2-----------------5--------5--------5-------5------------|
D|----------------------------------------------------------7----------------|
Related for Daniel tab
×
Daniel