Song name
# A B C D E F G H I J K L M N O P Q R S T U V W X Y Z

Lisa Komine - Resuscitated Hope tab

Gosick Ending Lisa Komine - Resuscitated Hope 
Intro Short Part , ritmical
E-7-5-7-----7-5-7-----10--7-5-----------------|
A-------4-7-------------------7-6--7-6-4------|
D---------------------------------------------|
G---------------------------------------------|
B---------------------------------------------|
E---------------------------------------------|

Loneliness, Fighting back again, Seems to be like it never ends

E|-7-5-7-----7-5-7-----10-12-10-5--------------|
A|-------4-7-----------------------------------|
D|---------------------------------------------|
G|---------------------------------------------|
B|---------------------------------------------|
E|---------------------------------------------|

Give us hope through the love of peaceful shine on me

Tabs by brought to you by Leinchetzu
Tap to rate this tab
# A B C D E F G H I J K L M N O P Q R S T U V W X Y Z