Song name
# A B C D E F G H I J K L M N O P Q R S T U V W X Y Z

Lisa Mitchell - Love Letter tab

Ok, so I saw one tab of this song, and it was great, but it wasn't spot on.
I had to listen to this song many times over to get it just right.
The chords are C,G, and Am for the verse, the chorus is F, C, G for the chorus and bridge.
You want to hit the A string first, then the D string for the verse and bridge
and alternate back and forth.
For the chorus you hit the top 2 strings on the chord and alternate back
and forth. Below is the layout.
Any questions please email at roberjos5@yahoo.com


CHORD LAYOUT:

Intro
          C     G                Am
   E -------0-----------------------------------|
   B -------------------------------------------|
   G -------------------------------------------|
   D -----------2---0-0-2-0------2---2---2------|  (x3)
   A -0-2-3---3---2----------3-0---0---0--------|
   E -------------------------------------------|

Verse
      C       G      Am
   E -------------------------------------------|
   B -------------------------------------------|
   G -------------------------------------------|
   D ---2---2---0--0---2---2---2---2------------|  (x3)
   A -3---3---2---2--0---0---0---0--------------|
   E -------------------------------------------|


Chorus 1

      F       C       G
   E --------------------------------------------|
   B --------------------------------------------|
   G --------------------------------------------|
   D -3---------2---2----------------------------|
   A ---------3---3-----2---2---2---2------------|
   E -----------------3---3---3---3--------------|


      F       C       G
   E --------------------------------------------|
   B --------------------------------------------|
   G ---2---2------------------------------------|
   D -3---3-----2---2----------------------------| (x3)
   A ---------3---3-----2---2---2---2------------|
   E -----------------3---3---3---3--------------|

Intro
          C     G                Am
   E -------0-----------------------------------|
   B -------------------------------------------|
   G -------------------------------------------|
   D -----------2---0-0-2-0------2---2---2------|  (x2
   A -0-2-3---3---2----------3-0---0---0--------|
   E -------------------------------------------|

Verse
      C       G      Am
   E -------------------------------------------|
   B -------------------------------------------|
   G -------------------------------------------|
   D ---2---2---0--0---2---2---2---2------------|  (x3)
   A -3---3---2---2--0---0---0---0--------------|
   E -------------------------------------------|

Chorus 2
      F       C       G
   E --------------------------------------------|
   B --------------------------------------------|
   G ---2---2------------------------------------|
   D -3---3-----2---2----------------------------| (x4)
   A ---------3---3-----2---2---2---2------------|
   E -----------------3---3---3---3--------------|

Bridge
      F       C       G
   E --------------------------------------------|
   B --------------------------------------------|
   G ---2---2------------------------------------|
   D -3---3-----2---2----------------------------| (x8)
   A ---------3---3-----2---2---2---2------------|
   E -----------------3---3---3---3--------------|

Chorus 2
      F       C       G
   E --------------------------------------------|
   B --------------------------------------------|
   G ---2---2------------------------------------|
   D -3---3-----2---2----------------------------| (x2)
   A ---------3---3-----2---2---2---2------------|
   E -----------------3---3---3---3--------------|



CHORD PLACEMENT


Verse 1:
            C                    G                     Am
I'd like a flat white, a day of pale skies and a real kiss.
           C                    G                       Am
Inside an old house by the seaside, you can take off my blouse.
               C          G                   Am
But take it from me I am disorderly and you'd be off better.


Chorus:

                           F                    Am               G
Writing someone else your love letter, cause i'm always on the road.
                           F                    Am               G
And of course i want to know you better but you know the way it goes.
                      F                   Am              G
But a telegram is no substitute when it comes to living proof.
                F                             Am          G
Oh go on and write somebody else, Oh somebody else, Oh anybody.
C
Your love letter.

Sha Sha Mmmmm.. etc.



Bridge:

     F                       C               G
Oh living in that chest is a big big heart, one i've known form the very start
Tap to rate this tab
# A B C D E F G H I J K L M N O P Q R S T U V W X Y Z