Song name
# A B C D E F G H I J K L M N O P Q R S T U V W X Y Z

Lisa - My Soul Your Beats tab

This is the anime Angel Beats 2nd op,this is my first tab 
so I dont know if its 100 percent but it sounds pretty accurate to me,
anyway I only figured out the intro if I figure out the rest ill put it up

Email: dainiwa14@yahoo.com if you have any questions

Artist: Lisa
Song: My Soul, Your Beats ~Rock Version~

Intro
e:-------------------------------------------|
B:-5-7h-5---3--0-----------------------------|
G:----------------2~~------------------------|
D:-------------------------------------------|
A:-------------------------------------------|
E:-------------------------------------------|

e:-------------------------------------------|
B:-5-7h-5---3--0-----5~~---------------------|
G:----------------2~~------------------------|
D:-------------------------------------------|
A:-------------------------------------------|
E:-------------------------------------------|

e:-------------------------------------------|
B:-5-7h-5---3--5--10--12~~-------------------|
G:-------------------------------------------|
D:-------------------------------------------|
A:-------------------------------------------|
E:-------------------------------------------|

e:-------------------------------------------|
B:-5-7h-5--3---------------------------------|
G:------------2-4b~~-------------------------|
D:-------------------------------------------|
A:-------------------------------------------|
E:-------------------------------------------|

Lyrics:
Mezamete wa kurikaesu nemui asa wa
eri no tai o kitsuku shime
kyoushitsu no doa kuguru to
honno sukoshi mune o hatte arukidaseru

sonna nichijou ni fukinukeru kaze

kikoeta ki ga shita
kanjita ki ga shita n da
furuedasu ima kono ude de
mou kuru ki ga shita
ikuoku no hoshi ga kiesatteku no o
miokutta te o futta yokatta ne to
Tap to rate this tab
# A B C D E F G H I J K L M N O P Q R S T U V W X Y Z