Song name
# A B C D E F G H I J K L M N O P Q R S T U V W X Y Z

Lisa - Crossing Field tab

CrossingField by LiSA

Tab made by using tehishter's piano sheet music - his youtube video: 
http://www.youtube.com/watch?v=rPWDijN0tJg
Standard Tuning.

Not done yet obviously =( might be done very soon or not soon.. have fun =). Watch the 
video of TehIshter above^(he plays it on the piano) to see what it sounds like.


"-" = 1/16th note
"~" = Let it ring
"V" = Down stroke
"^" = Up stroke

e|----------------|8---------------|--------10--8h10|-8--------------|----------------|
B|----------8-10--|6-----------6---|5---------------|------------1011|-10--8--10------|
G|--------10------|7---------------|5---------------|----------------|----------------|
D|----------------|0---------------|----------------|----------------|----------------|
A|----------------|----------------|0---------------|-8--------------|----------------|
E|----------------|----------------|----------------|----------------|----------------|
             V     V       V        V             V   V ^
e|13---------13---|12------8-------|10------------10|-1010-----------|----------------|
B|13---------13---|13------8-------|10------------10|-1010-----------|6^5---6---8-----|
G|-----------10---|12------9-------|10------------10|-1010-------0---|--------------7-|
D|----------------|--------10------|0-------------0-|-0-0--0-2-3---0-|0~--------------|
A|----------------|----------------|----------------|---------------3|----------------|
E|----------------|----------------|----------------|----------------|----------------|

e|----------------|----------------|--------10--13--|------13--------|15----------13--|
B|------------5---|6^5---6---8-----|----------------|13--------------|------15--------|
G|--------5-------|--------------7-|--------7---10--|------10--------|----------------|
D|----------------|0~--------------|----------------|10--------------|----------------|
A|----------------|----------------|----------------|----------------|----------------|
E|----------------|----------------|----------------|----------------|----------------|


e|--------12------|10-----8--------|----------------|----------------|----------------|
B|----------------|----------------|----------------|----------------|----------------|
G|----------------|----------------|----------------|----------------|----------------|
D|--------14------|12-----10-------|----------------|----------------|----------------|
A|----------------|----------------|----------------|----------------|----------------|
E|----------------|----------------|----------------|----------------|----------------|
Tap to rate this tab
# A B C D E F G H I J K L M N O P Q R S T U V W X Y Z