Song name
# A B C D E F G H I J K L M N O P Q R S T U V W X Y Z

Little Birdy - Brother tab

Highlighted       Show chord diagrams
Little Birdy- Brother (feat Paul Kelly)
new song, simple but beautiful

capo on 3rd fret

starts off picking:
verse
   C                     Am
e(3)|--(0)------------| x2 |----------------------------| x2
B(3)|---1---1---1---1-|    |---1---1---1---1------------|
G(3)|---0---0---0---0-|    |---0---0---0---0------------|
D(3)|-----------------|    |----------------------------|
A(3)|-3---3---3---3---|    |-0---0---0---0--------------|
E(3)|-----------------|    |----------------------------|
     my brother...
   F                 G                Am
   |--(1)------------|--(3)------------|-----------------|-----------------|
   |---1---1---1---1-|---3---3---3---3-|---1---1---1---1-|---1---1---1---1-|
   |---2---2---2---2-|---0---0---0---0-|---0---0---0---0-|---0---0---0---0-|
   |-----------------|-----------------|-----------------|-----------------|
   |-----------------|-----------------|-0---0---0---0---|-0---0---0---0---|
   |-1---1---1---1---|-3---3---3---3---|-----------------|-----------------|
    wait for me...

intro: C   C

verse 1:
   C                            Am
my brother, you taught me how to fly
my papa, you taught me how to cry
 F           G                  Am
wait for me, wait for me to show you
wait for me, wait for me to show you

   C                           Am
my mama, she torched down my soul
and i feel it, feel it whoaooah
 F           G                  Am
so show me your soul and ill show you mine
yeah show me your soul and ill show you mine

then (totally folk out!): Am        Am

              Am        G       C
so whos gonna love you now, baby?
   whos gonna love you now, baby?
when your gone fighting that war at sea
get on that ship and sail back to me

bridge:

Am       C        Am
ooooooooh whhoahaohh

C           Am   x2
 (harmonica)

the Am

then another chorus (x2):
           Am       G       C
whos gonna love you now, baby?
whos gonna love you now baby?
when youre gone fighting that war at sea
get on that ship and sail back to me

end on C

if unlike me, or like katy steele youre a proper guitarist put in all the hammer-ons and 
links between chords but here are the basics

email at stuff.stuff26@gmail.com for suggestions, hate mail or corrections 
(especially for the lyrics!)
Tap to rate this tab
 
# A B C D E F G H I J K L M N O P Q R S T U V W X Y Z