Song name
# A B C D E F G H I J K L M N O P Q R S T U V W X Y Z

Little Walter - My Babe tab

Have a look at http://www.littlewalter.net/

This song is written by Willie Dixon for Little Walter and has been covered by many other artists.

Little Walter version is in F, so this would be the main riff:

e|--------------------------------|--------------------------------|
B|----------------3-------3---1---|--------------------------------|
G|----------------3-------3---1-h-|2-------------------------------|
D|1h3p1h3p1h3---------------------|----3---------------------------|
A|--------------------------------|--------------------------------|
E|--------------------------------|--------------------------------|

During the C it changes to:

e|-----------------------------------|--------------------------------|
B|-------------------10-----10---8---|--------------------------------|
G|-------------------10-----10---8-h-|9-------------------------------|
D|8h10p8h10p8h10---------------------|----10--------------------------|
A|-----------------------------------|--------------------------------|
E|-----------------------------------|--------------------------------|

Just play these riffs during the Chords.


The Chords for the Song are:

[Verse 1:]
F             F                  F       F
My baby don't stand no cheatin', my babe.
F                  F                  C       C
Oh yeah, she don't stand no cheatin', my babe.
F                  F
Oh yeah, she don't stand no cheatin',
    A#(break)       
She don't stand none of that midnight creapin'.
F        F                 F          F
My babe, true little baby, my babe.

[Verse 2:]
F          F                 F       F
My babe, I know she love me, my babe.
F         F                 C       C
Oh yes, I know she love me, my babe.
F         F 
Oh yes, I know she love me,
    A#(break)                   
She don't do nothing but kiss and hug me.
F        F                 F       F
My babe, true little baby, my babe.

[Solo:] 
F  F  F  F
A# A# F  F
C  A# F  F

F  F  F  F
A# A# F  F
C  A# F  F

[Verse 3:]
F             F                  F       F
My baby don't stand no cheatin', my babe.
F                F                  C       C
Oh no, she don't stand no cheatin', my baby.
F                F         
Oh no, she don't stand no cheatin',
A#(break)                     
Everything she do, she do so pleasin'.
F        F                F       F
My babe, true litle baby, my babe.

[Verse 4:]
F             F                 F       F
My baby don't stand no foolin', my babe.
F                  F                 C       C
Oh yeah, she don't stand no foolin', my babe.
F                  F
Oh yeah, she don't stand no foolin'.
A#(break)                    
When she's hot, there ain't no coolin'.
F        F                F        F
My babe, true litle baby, my babe.

[Outro:]
F            F
She my baby (true little baby).
F            F
She my baby (true little baby). [repeat & fade]
Tap to rate this tab
 
# A B C D E F G H I J K L M N O P Q R S T U V W X Y Z