Song name
# A B C D E F G H I J K L M N O P Q R S T U V W X Y Z

Live - Heropsychodreamer tab

--------------------------------------------------------------------------
HEROPSYCHODREAMER - +LIVE+
--------------------------------------------------------------------------
Email: benremmert@hotmail.com

Tuning: Eb, Ab, Db, Gb, Bb, eb

INTR0
    Dm          A           F             E
eb|-5---5-5-5-------------------1-1-1--------------|
Bb|-6-x-6-6-6-------------------1-1-1--------------|
Gb|-7-x-7-7-7-0-6-x-6-6-6-------2-2-2-2-x-1-1-1----|
Db|-7-x-7-7-7-0-7-x-7-7-7-0-3-x-3-3-3-3-x-2-2-2----|
Ab|-5-x-5-5-5-0-7-x-7-7-7-0-3-x-3-3-3-3-x-2-2-2----|
Eb|-------------5-x-5-5-5---1-x-1-0-1-0-x-0-0-0----|

VERSE
(Bass line)

Gb|------------------------------------------------------------|
Db|------------------------------------------------------------|
Ab|-0-0-3-0-x-0-00--------------------0-0-3-0-00-xx-11x-xx111--|
Eb|----------------00-1-1-xx-1-1-1-00--------------------------|

VERSE
(Guitar Part- let ring out)
    A                 F               A             Bb
eb|-----------------------------------------------------------|
Bb|-2---------------------------------2-------------3---------|
Gb|-2-----------------2---------------2-------------3---------|
Db|-2-----------------3---------------2-------------3---------|
Ab|-0-----------------3---------------0-------------1---------|
Eb|-------------------1---------------------------------------|

And that is it! Keep an eye out for the new +LIVE+ album, due out early 2006!


| /  slide up
| \  slide down
| h  hammer-on
| p  pull-off
| ~  vibrato
| +  harmonic
| x  Mute note
=================================================================
Tap to rate this tab
# A B C D E F G H I J K L M N O P Q R S T U V W X Y Z