Song name
# A B C D E F G H I J K L M N O P Q R S T U V W X Y Z

Live - Lakinis Juice tab

Help us improve GuitareTab! Take a short survey!
Tuning: C#-G#-C#-F#-A#-D#

Intro & Verse (w/Distortion):
-------x--x---------x--x--------x--x-------------|
-------x--x---------x--x--------x--x-------------|
-------x--x---------x--x--------x--x-----------7-|
-0--6--x--x---0--6--x--x--0--6--x--x--0--6--0--7-|
-0--4---------0--4--------0--4--------0--4--0--5-|
-0--4---------0--4--------0--4--------0--4--0----|

Prechorus (w/Chorus):
----------------------------------------------|
----------------------------------------------|
----------------6----7-----------------6----7-|
---6-----7-----4----5-----6-----7-----4----5--|
--4-----5-----4----5-----4-----5-----4----5---|
-4-----5-----4----5-----4-----5-----4----5----|

Chorus (w/Distortion):
---------------------------------------------------|
---------------------------------------------------|
-7--7--7--7-----------------7--7--7----------------|
-7--7--7--7--8--8--8--8--8--7--7--7--5--5--5--5--5-|
-5--5--5--5--8--8--8--8--8--5--5--5--5--5--5--5--5-|
-0--0--0--0--8--8--8--8--8--0--0--0--5--5--5--5--5-|
Related for Lakinis Juice tab