Guitaretab - guitar tabs
Song name
# A B C D E F G H I J K L M N O P Q R S T U V W X Y Z
Home / L / Live / Sparkle tab

Live - Sparkle tab

HOW FISHES PLAY [http://submode.com/fishes/]
------------------------------
Song: Sparkle
Performed by: LIVE
Album: The Distance To Here
Tabbed by: Fredrik J (fredrik.j@schoolsucks.com)
Modified by: Sebastian Rönnlund (sebbe@submode.com)
------------------------------

------------------------------------------------------------

INTRO RIFF:
Eb|-----------------------------------|
Bb|-----------------------------------|
Gb|---------7/8-8----10-10-10---------|
Db|--5-5-5--7/8-8-8--10-10-10--10-10--|
Ab|--5-5-5--5/6-6-8---8--8--8--10-10--|
Eb|--3-3-3--------6-------------8--8--|

------------------------------------------------------------

(INTRO RIFF) (2x)

(Bass only, play INTRO RIFF if you want)
I´m gatherin´ up my friends today
And those who recognize the face
As the vision that changed my mind
From hate to faith was a simple as 
grapes to wine and sweet as

(INTRO RIFF)
I´m gatherin´ up my friends today
All these hookers and soldiers and swine
And would be saints
All alone in their room that sparkle in their eye
Play a song that they´ll come outside to see if

Eb5       C5  G5 
Love will overcome
If this love will make us men
Love will draw us in
            Bb5        C5
To wipe our tears away
[ Tab from: http://www.guitaretab.com/l/live/119141.html ]
(INTRO RIFF)
The day that i was so sweetly sung
By the wind and the thunder moved by someone
The feelin´ of being lived was so strong
The giver became the gift, all one

(INTRO RIFF)
The day that i was so sweetly sung
The wind seemed to whisper softly, "oh son,
Don´t wait for the seas to part or messiahs to come
Don´t sit around and waste this chance, to see it"

Eb5       C5  G5 
Love will overcome
If this love will make us men
Love will draw us in
            Bb5       C5
To take our fear away

Eb5  C5  G5
Love 
Love
Love
Bb5   C5
Love, hey yeah

G5                                 Bb5        G5
Love, this day now, this day i was so sweetly sung
                    C5            G5
I know, i know that love will overcome

Eb|---------------------------------------------|
Bb|---------------------------------------------|
Gb|---------7/8-8------10-10-10-10-10-10-10-----|
Db|--5-5-5--7/8-8-8----10-10-10-10-10-10-10-10--|
Ab|--5-5-5--5/6-6-8-----8--8--8--8--8--8--8-10--|
Eb|--3-3-3--------6--------------------------8--|

Eb5       C5  G5 
Love will overcome
If this love will make us men
Love will draw us in
            Bb5                 C5
To take our fear away, wipe our tears away

[Eb5]  [C5]  [G5] (Repeat through following chorus)

Love, and all my friends are here
In the city i sing my song
In the face of the hooker, the soldier, the swine
I've found it, I've found it, I've found love
Love will, love will, love will overcome

[Eb5]  [C5]  [G5] (Repeat about 6 times)

Related for Sparkle tab